Song name
# A B C D E F G H I J K L M N O P Q R S T U V W X Y Z

Blonde Redhead - Falling Man tab

Help us improve GuitareTab! Take a short survey!
play in this order

e ------------------------------------------------|
b ------------------------------------------------|
g ------5-----------5-----------6-----------6-----| four
d ------------------------------------------------| times
a ------------------------------------------------|
e 5--5--------5--5-----5--6--6--------6--6-----6--|

e ------------------------------------------------|
b ------------------------------------------------|
g ------8-----------8-----------6-----------6-----|
d ------------------------------------------------|
a ------------------------------------------------|
e 8--8--------8--8-----8--6--6--------6--6-----6--|

e ------------------------------------------------|
b ------------------------------------------------|
g ------5-----------5-----------6-----------6-----|
d ------------------------------------------------|
a ------------------------------------------------|
e 5--5--------5--5-----5--6--6--------6--6-----6--|

e ------------------------------------------------|
b ------------------------------------------------|
g ------5-----------5-----------6-----------11----|
d ------------------------------------------------|
a ------------------------------------------------|
e 5--5--------5--5-----5--6--6--------11-11----11-|

e ------------------------------------------------|
b ------------------------------------------------|
g ------10----------2-----------3-----------3-----|
d ------------------------------------------------|
a ------------------------------------------------|
e 9--9--------1--1-----1--2--2--------2--2-----2--|

e ------------------------------------------------|
b ------------------------------------------------|
g ------5-----------5-----------6-----------11----|
d ------------------------------------------------|
a ------------------------------------------------|
e 4--4--------5--5-----5--6--6--------11-11----11-|

e ------------------------------------------------|
b ------------------------------------------------|
g ------10----------2-----------3-----------3-----|
d ------------------------------------------------|
a ------------------------------------------------|
e 9--9--------1--1-----1--2--2--------2--2-----2--|

e ------------------------------------------------------------------------|
b ------------------------------------------------------------------------|
g ------3-----------3-----------2-----------2-----------2-----------2-----|
d ------------------------------------------------------------------------|
a ------------------------------------------------------------------------|
e 2--2--------2--2-----2--1--1--------1--1-----1--1--1--------1--1-----1--|
                                                                      (6)

then repeat
two thirds into the song is a recorded airy noise fiasco that contains no live guitars 
you could just skip it if youd like
make sure to end on the parenthetical bm note (e string 6th fret) as it is the songs 
note otherwise you will end the verses with the f note (e string 1st fret) above

jihad joe
zane@treluna.com
Related for Falling Man tab