Song name
# A B C D E F G H I J K L M N O P Q R S T U V W X Y Z

Blonde Redhead - Dr Strangeluv tab

Intro:

     Em         Cm/Eb        G/D        G/D
     4x          2x          
e-----------|-----------|---------3-|--------3-|
B---------8-|---------8-|-----------|----------|
G-----------|----5------|----4------|----4-----|
D----9------|-----------|-----------|----------|
A--7---7----|--6---6----|--5---5----|--5---5---| 
E-----------|-----------|-----------|----------| 
                                     Looking...

Verse:
Repeat 3 Times

    A/C#         C6          Em         G/D
    4x           4x          4x         4x
e---------0-|---------0-|----------|--------3-|
B-----------|-----------|--------8-|----------|
G----2------|----2------|----------|----4-----|
D-----------|-----------|----9-----|----------|
A--4---4----|--3---3----|--7---7---|--5---5---|
E-----------|-----------|----------|----------|





Bridge:


    A/C#         C6         
     4x          4X                    2x
e---------0-|--------0-||----------------------------------|
B-----------|----------||----------------------------------|
G----2------|----2-----||-0-0-0-0-0-0-0-0-------------2-2--|
D-----------|----------||-2-2-2-2-2-2-2-2-4-4-4-5-5-5-2-2--|
A--4---4----|--3---3---||-----------------3-3-3-3-3-3------|
E-----------|----------||----------------------------------|




Chorus:
2 Times

    G         D          Cdim        Em         D             D/C
    4x        2x          2x         4x         2x
e---------|----------|----------|----------|----------|------------------|
B-----3---|-----3----|-----4----|-----0----|-----0----|-----0------------|
G---4---4-|---2---2--|---2---2--|---0---0--|----------|--------------2---|
D-5-------|-4--------|-4--------|-2--------|---4---4--|---4---4----4---4-|
A---------|----------|----------|----------|-5--------|-3--------3-------|
E---------|----------|----------|----------|----------|------------------|



Verse
Bridge
Chorus
Verse

Ending:Em   Cm/Eb Arpeggios




Tap to rate this tab
# A B C D E F G H I J K L M N O P Q R S T U V W X Y Z