Song name
# A B C D E F G H I J K L M N O P Q R S T U V W X Y Z

Blondelle - The English Way tab

-------------------------------------------------------------------------------
			     THE ENGLISH WAY (intro) - Blondelle
-------------------------------------------------------------------------------
Tabbed by: Luca
Video: https://www.youtube.com/watch?v=H7lyVPON_gk
Wiki: http://en.wikipedia.org/wiki/Blondelle

Tuning: Standard

e|-1------1--0-----0--1--1--1----1-------------------------------------------|
B|---1---------1------3--------3---------------------------------------------|
G|-----2---------0----2------------------------------------------------------|
D|---------------------------------------------------------------------------|
A|---------------------------------------------------------------------------|
E|---------------------------------------------------------------------------|

e|-1------1--0-----0--1------------------------------------------------------|
B|---1---------1------3------------------------------------------------------|
G|-----2---------0----2------------------------------------------------------|
D|---------------------------------------------------------------------------|
A|---------------------------------------------------------------------------|
E|---------------------------------------------------------------------------|

Verse: F, C, Dm, Dm
Bridge ("My brother, my friend, what have we done to deserve this?"): Dm, A, A#, G
Tap to rate this tab
 
# A B C D E F G H I J K L M N O P Q R S T U V W X Y Z