Song name
# A B C D E F G H I J K L M N O P Q R S T U V W X Y Z

Blondie - Atomic tab

Band Name: Blondie
Song Name: Atomic
Guitarist: Chris Stein
Tabbed By: Terry Sims (Masterofdarknes)
Email: Floyd_Fan@teenspot.com

Tuning: Normal

(Main intro riff)

|-------------------------------------------------------------------|
|-------------------------------------------------------------------|
|-------------------------------------------------------------------|
|-----5--4----2-------5--4----2-------5--4----2---------------------|
|--2---------------2---------------2--------------------------------|
|-------------------------------------------------------------------|

|-------------------------------------------------------------------|
|-------------------------------------------------------------------|
|--------------------4---(2)(4)-------------------------------------|
|-----5--4\\7------------------------5----4-------------------------|
|--2------------------------------2---------------------------------|
|-------------------------------------------------------------------|

This is a good riff a quite easy so give it a go.
Tap to rate this tab
# A B C D E F G H I J K L M N O P Q R S T U V W X Y Z