Song name
# A B C D E F G H I J K L M N O P Q R S T U V W X Y Z

Blondie - Hanging On The Telephone tab

Riff

e|---------------------------------------------------------------------------|
B|-6-6-6-6-------------------------------------------------------------------|
G|-3-3-3-3-5p3---------------------------------------------------------------|
D|-------------5p3-----------------------------------------------------------|
A|-----------------3p1-------------------------------------------------------|
E|---------------------------------------------------------------------------|

chorus

e|---------------------------------------------------------------------------|
B|------------------------------------------------------last-time------------|
G|-8---7---3---------------------------------------------12p10h12------------|
D|-8---7---3----3------------------------------------------------------------|
A|-6---5---1----3--------5----------5----------------------------------------|
E|--------------1---3--6---6--3--6-------------------------------------------|

Prechorus (w/keyboard)

PM_____________________________________
e|---------------------------------------------------------------------------|
B|---------------------------------------------------------------------------|
G|---------7-7---------------------------------------------------------------|
D|-5-5-8-8-----8-8----------7-7----------------------------------------------|
A|------------------5-5-8-8-----8-8------------------------------------------|
E|---------------------------------------------------------------------------|

Solo (play x3)

e|---------------------------------------------------------------------------|
B|-8-8-10b11b10-8------------------------------------------------------------|
G|----------------10-10-10---------------------------------------------------|
D|-------------------------8h10p8--------------------------------------------|
A|--------------------------------10-8---------------------------------------|
E|---------------------------------------------------------------------------|

Solo cont.

e|---------------------------------------------------------------------------|
B|---------------------------------------------------------------------------|
G|-10-10-10---------------10-10-10-------------------------------------------|
D|----------8h10p8-----------------8h10p8------------------------------------|
A|------------------10-8------------------10-8-------------------------------|
E|---------------------------------------------------------------------------|

e|---------------------------------------------------------------------------|
B|---------------------------------------------------------------------------|
G|-8-----7-------------------------------------------------------------------|
D|---------------8______-----------------------------------------------------|
A|-------------------------------------------8----10-------------------------|
E|---------------------------------------------------------------------------|
Tap to rate this tab
# A B C D E F G H I J K L M N O P Q R S T U V W X Y Z