Song name
# A B C D E F G H I J K L M N O P Q R S T U V W X Y Z

Blood Addiction - All Around You tab

E|----------------------------------|
B|----------------------------------|
G|----------------------------------|
D|----------------------------------|
A|---1010108-8-6-5-6-5-6-5----------|
D|---0-0-0-0-0-0-0-0-0-0-0----------|

x4






E|-----------------------------------|
B|-----------------------------------|
G|---------=-------------------------|
D|--888812121212---------------------|
A|--888810101010---------------------|
D|--888810101010---------------------|




E|--------------------------2---------2----------------------|
B|-------1--------1--------3-3-------3-3---------------------|
G|------0-0------0-0------2---2-----2---2--------------------|
D|----2----2----2---2----0-----0---0-----0-------------------|
A|---3------3--3-----3--0-------0-0-------0------------------|
D|--0--------00-------0----------0---------0-----------------|


x2

E|---------------------------------------------|
B|---------------------------------------------|
G|---------------------------------------------|
D|------------------8-7------------8-7-5-3-----|
A|-8-7-5-8-7-5-8-7-5----8-7-5-8-7-5------------|
D|---------------------------------------------|



E|-----------------------------------|
B|-----------------------------------|
G|---------=-------------------------|
D|--888812121212---------------------|
A|--888810101010---------------------|
D|--888810101010---------------------|

x2





E|---------------------------------------------|
B|---------------------------------------------|
G|---------------------------------------------|
D|------------------8-7------------8-7-5-3-----|
A|-8-7-5-8-7-5-8-7-5----8-7-5-8-7-5------------|
D|---------------------------------------------|






E|------------------------------|
B|------------------------------|
G|------------------------------|
D|------------------------------|
A|-8-7-5-8-7-5-8-7-------8-7----|
D|----------------8-7-8-7-------|


x2

E|----------------------------------------------|
B|----------------------------------------------|
G|-------------------------1010-----------------|
D|--888888777777788888887777777-----------------|
A|--888888777777788888887777777-----------------|
D|--888888777777788888887777777-----------------|

x4

E|----------------------------------|
B|----------------------------------|
G|----------------------------------|
D|---888877770----------------------|
A|---888877770----------------------|
D|---888877770----------------------|
Tap to rate this tab
 
# A B C D E F G H I J K L M N O P Q R S T U V W X Y Z