Song name
# A B C D E F G H I J K L M N O P Q R S T U V W X Y Z

Blood Brothers - The Shame tab

-------------------------------------------------------------------------------
			     THE SHAME - The Blood Brothers
-------------------------------------------------------------------------------

Hello, this is my first tab, I'm not that sure about the "Everything is gonna be just 
awful..."-party though,
also, I didn't really try to tab the piano part. It's not 100% accurate, but you'll be able
to figure some things out yourself. Have fun! For suggestions, corrections, send me a mail.

Tabbed by: wolfgang e
Email: egiwolfi [at] yahoo [dot] de


-----------------------------------------------

[0:00-0:27] First verse

E--------0-------------0-----------------0-------------------|
B----1-----1-------1-----1-------1---1---------1---1---------|
G--2---2-----2---0---0-----0-------0---0-------------0-------|   x1
D------------------------------3-------------2---2-----2-----|
A------------------------------------------------------------|
E------------------------------------------------------------|


E--------0-------------0-----------------0-------------0-----|
B----1-----1-------1-----1-------1---1---------1---1---------|
G--2---2-----2---0---0-----0-------0---0---------0---0-------|   x2
D------------------------------3-------------2---------------|
A------------------------------------------------------------|
E------------------------------------------------------------|


E--------0-------------0-------------0-------------0---------|
B----1-----1-------1-----1-------1-----1-------1-----1-------|
G--2---2-----2---0---0-----0-------0-----0-------0-----0-----|   x1
D------------------------------3-------------2---------------|
A------------------------------------------------------------|
E------------------------------------------------------------|

[0:28-0:39] "Everything is gonna be just awful..."
Cody uses a pedal to make the swells

E---------------------|
B---------------------|
G---------------------|
D--7----9---10---5----| [x2]
A--x----x---x----x----|
E--5----7---8----3----|


[0:40-1:05] The next part also contains a piano, as far as I can hear, it looks like this.
the timing is a bit difficult though

E-------------------8\---3--0-----------8---3--7-----------8---3-0------|
B--6--3--8--1-----6----3-------1------6---3-------0--1---6---3-----1----|
G-----------------------------------------------------------------------|
D-----------------------------------------------------------------------|
A-----------------------------------------------------------------------|
E-----------------------------------------------------------------------|

[1:06-1:18] the piano part, roughly tabbed:

E------------------------------------------------------------------------|
B------------------------------------------------------------------------|
G------------------------------------3-2------3-2------3-2------3-2------|
D----2-3-2-----2-3-2----2-3-2------3--------3--------3--------3----------|
A--0---------0--------0----------1--------1--------1--------1------------|
E------------------------------------------------------------------------|

the next part is mostly chaos and feedback, sometimes the high string is hit at the 17th fret.
 I saw a live video of the blood brothers playing the song, and Cody just messed around until:
[1:43-1:53]

E---5-5-5-5-5-5--3-3-3-3-3-3--    -5-5-5-5-5-5--8--8--8--8--8--8---5-5-5-5-5-5--|
B---5-5-5-5-5-5--3-3-3-3-3-3--    -5-5-5-5-5-5--8--8--8--8--8--8---5-5-5-5-5-5--|
G---7-7-7-7-7-7--5-5-5-5-5-5--[x2]-7-7-7-7-7-7--10-10-10-10-10-10--7-7-7-7-7-7--|
D---7-7-7-7-7-7--5-5-5-5-5-5--    -7-7-7-7-7-7--10-10-10-10-10-10--7-7-7-7-7-7--|
A---5-5-5-5-5-5--3-3-3-3-3-3--    -5-5-5-5-5-5--8--8--8--8--8--8---5-5-5-5-5-5--|
E-----------------------------    ----------------------------------------------|

noise again, then:
[2:05-2:21]

E---5-5-5-5-5-5--3-3-3-3-3-3--    -5-5-5-5-5-5--3-3-3-3-3-3--5-5-5-5-5-5--3-3-3-3-3-3--|
B---5-5-5-5-5-5--3-3-3-3-3-3--    -6-6-6-6-6-6--4-4-4-4-4-3--5-5-5-5-5-5--3-3-3-3-3-3--|
G---7-7-7-7-7-7--5-5-5-5-5-5--[x2]-7-7-7-7-7-7--5-5-5-5-5-5--7-7-7-7-7-7--5-5-5-5-5-5--|
D---7-7-7-7-7-7--5-5-5-5-5-5--    -7-7-7-7-7-7--5-5-5-5-5-5--7-7-7-7-7-7--5-5-5-5-5-5--|
A---5-5-5-5-5-5--3-3-3-3-3-3--    -5-5-5-5-5-5--3-3-3-3-3-3--5-5-5-5-5-5--3-3-3-3-3-3--|
E-----------------------------    -----------------------------------------------------|

[2:17-2:21]
E----------------------------|
B------8-----8------8-----5--|
G----5-----5------5-----5----|
D--7-----6------7-----7------|
A----------------------------|
E----------------------------|

[2:22-5:32] End

E---------------------|
B---------------------|
G---------------------| again with volume swells
D--7----9---10---5----| the acoustic guitar probably plays the same riff.
A--x----x---x----x----| I'm not really sure about that part though
E--5----7---8----3----|

later, another guitar joins around [~4:00]and plays this:

E--12--7--8--|
B------------|
G------------|
D------------|
A------------|
E------------|
Tap to rate this tab
# A B C D E F G H I J K L M N O P Q R S T U V W X Y Z