Song name
# A B C D E F G H I J K L M N O P Q R S T U V W X Y Z

Blood Brothers - Ambulance Vs Ambulance tab

-------------------------------------------------------------------------------
			     AMBULANCE VS. AMBULANCE - The Blood Brothers
-------------------------------------------------------------------------------

Tabbed by: wolfgang e
Email: egiwolfi [at] yahoo [dot] de

Tuning: EADGBe aka standard

I know this tab doesn't really look that good (I didn't tab every stroke Cody does), you 
have to listen A LOT to the song though to get the strumming/timing right.

Intro [0:00-0:08]
Figure out the strumming, it's mostly fast down-up-down, I'll call these "stabs"

e|---------------------------|
B|---------------------------|
G|-7-----------7-7-7-7-7-----| etc
D|-6-6-6-6-6-6-6-6-6-6-6-----|
A|-5-5-5-5-5-5-5-5-5-5-5...--|
E|---4-4-4-4-4---------------|


Verse [0:16-0:24]
Strum that chord really fast. Cody then uses a pedal to make the weird sounds, I don't 
know what effect it is though.
  v        [0:32-0:54] Again mostly stabs, in brackets how many times he plays that 
chord. Figure out timing/strumming
e|-----|   |---------------------------------------------------------------------|
B|-----|   |---------------------------------------------------------------------|
G|-7---|   |---------------------------------------------------------------------|
D|-6---|   |-6-------------------------------------------------------------------|
A|-5---|   |-x-(x6)-(x5)-(x6)-(x5)-(x6)-(x6)-------------------------------------|
E|-----|   |-4-------------------------------------------------------------------|


Prechorus [0:55-0:58]

e|-------------------|
B|-------------------|
G|-------------------|
D|-------------------|
A|-------------------|
E|-4444-5-4-5555-777-|


Chorus [0:59-1:11]

e|--------------------------------------------------------------|
B|--------------------------------------------------------------|
G|-------------------------4-4-4-4-x-7--------------------------|
D|-6-6-6-6-6-6-6-6---------x-x-x-x-x-6--6-6-6-6-6-6-6-6-6-6-6-6-|
A|-x-x-x-x-x-x-x-x---------2-2-2-2-x-5--x-x-x-x-x-x-x-x-x-x-x-x-|
E|-4-4-4-4-5-5-5-5-0-0-0-0--------------4-4-4-4-5-5-5-5-4-4-4-4-|


Bridge [1:12-2:06]

play the bridge part twice, you really have to listen close to get the strumming/timing right

e|------------------------------------------------------|
B|------------------------------------------------------|
G|-4-4-4-4--6-6--7-7-7-7-7-7-9--4-4-4-4-6-6--7-7-7-7-7--|
D|-x-x-x-x--x-x--x-x-x-x-x-x-x--x-x-x-x-x-x--x-x-x-x-x--|
A|-2-2-2-2--4-4--5-5-5-5-5-5-7--2-2-2-2-4-4--5-5-5-5-5--|
E|------------------------------------------------------|

e|----------------------------------|
B|-10h12--8p7-8p7--7p5-7p5--5p3-5p3-|
G|----------------------------------|   play the hammer on/pull off part 4 times
D|----------------------------------|   there's a little pause after the last "5p3"
A|----------------------------------|
E|----------------------------------|


I dunno [2:07-2:10]

Again this pedal thing, you could also try sliding up the neck really fast, whatever

e|-------------|
B|-------------|
G|-------------|
D|-5-5-5-5-5-5-|
A|-4-4-4-4-4-4-|
E|-3-3-3-3-3-3-|


Chorus, a bit different [2:11-2:41]

e|----------------------------------------------------------------------|
B|----------------------------------------------------------------------|
G|-------------------------4-4-4-4-x-7----------------------------------|
D|-6-6-6-6-6-6-6-6---------x-x-x-x-x-6--6-6-6-6-6-6-6-6-6-6-6-6---------|
A|-x-x-x-x-x-x-x-x---------2-2-2-2-x-5--x-x-x-x-x-x-x-x-x-x-x-x---------|
E|-4-4-4-4-5-5-5-5-0-0-0-0--------------4-4-4-4-5-5-5-5-4-4-4-4-0-0-0-0-|


e|--------------------------------------|
B|--------------------------------------|
G|-------------------------4-4-4-4-x-7--|
D|-6-6-6-6-6-6-6-6---------x-x-x-x-x-6--|  <--- play this part twice
A|-x-x-x-x-x-x-x-x---------2-2-2-2-x-5--|
E|-4-4-4-4-5-5-5-5-0-0-0-0--------------|

Outro [2:42-2:49]

listen to get the strumming right

e|------------------------|
B|------------------------|
G|-7---7---7---7-7-7-7-7--|
D|-6-6-6-6-6-6-6-6-6-6-6--| etc
A|-5-5-5-5-5-5-5-5-5-5-5--|
E|---4---4---4------------|


************************************

| /   slide up
| \   slide down
| h   hammer-on
| p   pull-off
| ~   vibrato
| +   harmonic
| x   Mute note
| b   Bend
| pb  Pre-bend
| br  Bend release
| pbr Pre-bend release
| brb Bend release bend

************************************
Tap to rate this tab
# A B C D E F G H I J K L M N O P Q R S T U V W X Y Z