Song name
# A B C D E F G H I J K L M N O P Q R S T U V W X Y Z

Blood For Blood - Dead End Street tab

Blood for Blood
Outlaw Anthems
Dead End Streets

Intro/Verse:
-------------------------------|
-------------------------------|
---------------------8-8-------|
---5-5-3-5-5-5-8-8-8-8-8-8-8---|
---5-5-3-5-5-5-8-8-8-6-6-8-8---|
---3-3-1-3-3-3-6-6-6-----6-6---|

-------------------------------|
-------------------------------|
---------------------8-8-8-8---|
---5-5-3-5-5-5-8-8-8-8-8-8-8---|
---5-5-3-5-5-5-8-8-8-6-6-6-6---|
---3-3-1-3-3-3-6-6-6-----------|    many times

Chorus:
-------------------------------------|
-------------------------------------|
---3-3-3-3---------------------------|
---3-3-3-3-3-3-3-3-5-5-5-3-5-5-5-3---|
---1-1-1-1-3-3-3-3-5-5-5-3-5-5-5-3---| x4
-----------1-1-1-1-3-3-3-1-3-3-3-1---|
Tap to rate this tab
 
# A B C D E F G H I J K L M N O P Q R S T U V W X Y Z