Song name
# A B C D E F G H I J K L M N O P Q R S T U V W X Y Z

Blood For Blood - Livin In Exile tab

Help us improve GuitareTab! Take a short survey!
#-----------------------------------------------------------------------------#
#-- File created with Instab - http://www.pconline.com/~smcarey/instab.html --#
#-----------------------------------------------------------------------------#

Author/Artist: Blood For Blood
Title: Livin' In Exile
Album: Livin In Exile
Transcribed by: Jordan Driscoll
Email: Vandal02301@aol.com

------------------------------------------------------------------------------|
------------------------------------------------------------------------------|
------------------------------------------------------------------------------|
-5--5--5-5---2-2-2-0---7--7--7-7---6-6-6-4------------------------------------|
-5--5--5-5---2-2-2-0---7--7--7-7---6-6-6-4------------------------------------|
-3--3--3-3---0-0-0-0---5--5--5-5---4-4-4-4------------------------------------|


------------------------------------------------------------------------------|
------------------------------------------------------------------------------|
------------------------------------------------------------------------------|
-5--5--5-5---2-2-2-0---7--7--7-7---8-8-8-8-8--7--------------7-7-7-7-6-6-6-4--|
-5--5--5-5---2-2-2-0---7--7--7-7---8-8-8-8-8--7--------------7-7-7-7-6-6-6-4--|
-3--3--3-3---0-0-0-0---5--5--5-5---6-6-6-6-6--5--------------5-5-5-5-6-6-6-4--|


------------------------------------------------------------------------------|
------------------------------------------------------------------------------|
------------------------------------------------------------------------------|
-7-7-7777---10-10-10101010---5-5-5555---7-7-7777----------5-555555------------|
-7-7-7777---10-10-10101010---5-5-5555---7-7-7777----------5-555557------------|
-5-5-5555----8--8--8-8-8-8---3-3-3333---5-5-5555----------3-333333------------|


------------------------------------------------------------------------------|
------------------------------------------------------------------------------|
------------------------------------------------------------------------------|
-5-5--5555---2-2--2222---5-5--5555---7-7--7777--------------------------------|
-5-5--5555---2-2--2222---5-5--5555---7-7--7777--------------------------------|
-3-3--3333---0-0--0000---3-3--3333---5-5--5555--------------------------------|


------------------------------------------------------------------------------|
------------------------------------------------------------------------------|
------------------------------------------------------------------------------|
-7-7-7777---8-8-8888---9-9-9999---5-5-5555----------7-7-----------------------|
-7-7-7777---8-8-8888---9-9-9999---5-5-5555----------7-7-----------------------|
-5-5-5555---6-6-6666---7-7-7777---3-3-3333----------5-5-----------------------|


------------------------------------------------------------------------------|
------------------------------------------------------------------------------|
------------------------------------------------------------------------------|
-7-x-7-x--3-x-3-x--5-x-5-x--8-x-7-x-------------------------------------------|
-7-x-7-x--3-x-3-x--5-x-5-x--8-x-7-x-------------------------------------------|
-5-x-5-x--1-x-1-x--3-x-3-x--6-x-5-x-------------------------------------------|


------------------------------------------------------------------------------|
------------------------------------------------------------------------------|
------------------------------------------------------------------------------|
-7-x-7-x--10-x-10-x--12-x-12-x--7-x-6-x---------------------------------------|
-7-x-7-x--10-x-10-x--12-x-12-x--7-x-6-x---------------------------------------|
-5-x-5-x---8-x--8-x--10-x-10-x--5-x-4-x---------------------------------------|
Related for Livin In Exile tab