Song name
# A B C D E F G H I J K L M N O P Q R S T U V W X Y Z

Blood For Blood - White Trash Anthem tab

(Main Riff) Heavy Distortion
E------------------------------------------------|
B------------------------------------------------|
G-------------------------5-5-5-5----------------|
D--7-7-7-7----3-3-3-3-----5-5-5-5---5-5-5-5------|
A--7-7-7-7----3-3-3-3-----3-3-3-3---5-5-5-5------|
E--5-5-5-5----1-1-1-1---------------3-3-3-3------|

E--------------------------------------------------|
B--------------------------------------------------|
G--------------------------------------------------|
D--7-7-7-7----3-3-3-3------------------------------|
A--7-7-7-7----3-3-3-3------------------------------|
E--5-5-5-5----1-1-1-1----1 h3 1 h3 1 h3 1 h3 ------|
Tap to rate this tab
 
# A B C D E F G H I J K L M N O P Q R S T U V W X Y Z