Song name
# A B C D E F G H I J K L M N O P Q R S T U V W X Y Z

Blood Hound Gang - Ballad Of Jesey Elaine tab

Help us improve GuitareTab! Take a short survey!
Standard Tuning

Intro
-------------------------------------------------
-------------------------------------------------
-------------------------------------------------
--11-11-11-11\9--2-2-2-2-/9--7-7-7-7/9--6-6-6-6/7
--11-11-11-11\9--2-2-2-2-/9--7-7-7-7/9--6-6-6-6/7
---9--9--9--9\7--0-0-0-0-/7--5-5-5-5/7--4-4-4-4/5

Chorus

---------------------------------------
---------------------------------------
--66666666-99999999--------------------
--66666666-99999999-7777777-666666666--
--44444444-77777777-7777777-666666666--
--------------------5555555-444444444--

After Chorus

--------------------
--------------------
--------------------
--11-11-11-11\9--6--
--11-11-11-11\9--6--
---9--9--9--9\7--4--

Bridge

---------------------------------------------------------------
---------------------------------------------------------------
--444444444444-6666666666----------------------444444444444-2--
--444444444444-6666666666-----2222222222222222-444444444444-2--
--222222222222-4444444444-----2222222222222222-222222222222-0--
------------------------------0000000000000000-000000000000----
Related for Ballad Of Jesey Elaine tab