Song name
# A B C D E F G H I J K L M N O P Q R S T U V W X Y Z

Blood Of The Martyrs - Vietnamese Two Step Viper tab

Blood Of The Martyrs - Vietnamese Two Step Viper

Tuning - Drop A#

Legend
. Palm mute
h hammer on
p pull off
v vibrato

Seems pretty much correct

 0:00-0:14
|-------------------------------------------|
|------10--10-10---10--10-10-10-10---10-10--|
|------13--13-13---13--13-13-13-13---13-13--|
|-------------------------------------------|x4
|--0-0-----------0-----------------0--------|
|--0-0-----------0-----------------0--------|
pm . .           .                 .   
   
 0:14-0:21
|------13--13-13---13--13-13-13-13---13-13--|
|------17--17-17---17--17-17-17-17---17-17--|
|-------------------------------------------|
|-------------------------------------------|x2
|--0-0-----------0-----------------0--------|
|--0-0-----------0-----------------0--------|
   . .           .                 .  
 
 0:21-0:35
|----------------------------------------------------|
|----------------------------------------------------|
|----------------------------------------------------|
|----------------------------------------------------|x2
|----------------------------------------------------|
|--0-0-0--0-0---000000--000000--0-0-0--0-0---000000--|
   .            ......  ......  .            ......

 0:35-0:42
|------------------------------------------------------------------|
|--12-12h13p12-12-12h13p12-16p12-13p12-12-12h13p12-12-12h13p12-----|
|--------------------------------------------------------------11~-|
|------------------------------------------------------------------|
|------------------------------------------------------------------|
|------------------------------------------------------------------|

 0:42-0:56
|----------------------------------------------------------------------------------|
|--12-12h13p12-12-12h13p12-16p12-13p12-12--13--12--13--18ph----12--13--12--13------|
|------------------------------------------------------------------------------11v-|
|----------------------------------------------------------------------------------|
|----------------------------------------------------------------------------------|
|----------------------------------------------------------------------------------|

 0:56-1:02
|------------------------------------------------------|
|------------------------------------------------------|
|------------------------------------------------------|
|------------------------------------------------------|x2
|------------------------------------------------------|
|--1-2-1-0-1--1-2-1-0-1--1-2-1-0-1-2-1-0-1--1-2-1-0-1--|

 1:02-1:10
|------------------------------------------------------|
|------------------------------------------------------|
|------------------------------------------------------|
|------------------------------------------------------|x2
|--1-2-1-0-1--1-2-1-0-1--1-2-1-0-1-2-1-0-1--1-2-1-0-1--|
|--1-2-1-0-1--1-2-1-0-1--1-2-1-0-1-2-1-0-1--1-2-1-0-1--|

 1:10-1:16
|-----------------------------------------------------------|
|-----------------------------------------------------------|
|-----------------------------------------------------------|
|-----------------------------------------------------------|
|--1-2-1-0-1~~-1-2-1-0-1-2-1-0-1~~-1-2-1-0-0-0-0-0-0-0-0-0--|
|--1-2-1-0-1~~-1-2-1-0-1-2-1-0-1~~-1-2-1-0-0-0-0-0-0-0-0-0--|
                                           . . . . . . . . 
 1:16-1:30
|--------------------------------------------------------------------|
|--------------------------------------------------------------------|
|--------------------------------------------------------------------|
|--------------------------------------------------------------------|x2
|--1-0--8-7--6-5--0-0-0-0-0-0-0-0--1-0--8-7--13-12--0-0-0-0-0-0-0-0--|
|--1-0--8-7--6-5--0-0-0-0-0-0-0-0--1-0--8-7--13-12--0-0-0-0-0-0-0-0--|
                  . . . . . . . .                   . . . . . . . . 

I'll add the rest when I figure it out.
Tap to rate this tab
# A B C D E F G H I J K L M N O P Q R S T U V W X Y Z