Blood On The Dance Floor - Happy Violentines Day tab

So I picked up this album from the store looked through the songs and figured this out 
in like 5 minuets and it
should be close enough fer you to play if nooot idc about your feelings anyways

Something like this but just listen and figure it out:::

Main Riff
E---------------------------------------|
B---------------------------------------|
G---------------------------------------|
D-4-4-7-5-7-4-4-7-5-7-4-4-7-5-7-9-9-9-9-|
A-4-4-7-5-7-4-4-7-5-7-4-4-7-5-7-9-9-9-9-|
D-4-4-7-5-7-4-4-7-5-7-4-4-7-5-7-9-9-9-9-|

Another Riff
E------------------------------------------|
B------------------------------------------|
G------------------------------------------|
D-4-4--7-7-7-4-4--7-7-7-4-4--7-7-7-9-9-9-9-|
A-4-4--7-7-7-4-4--7-7-7-4-4--7-7-7-9-9-9-9-|
D-4-4--7-7-7-4-4--7-7-7-4-4--7-7-7-9-9-9-9-|

Next might be another song of this same album if yer lucky and if im not deaf
Tap to rate this tab
 
# A B C D E F G H I J K L M N O P Q R S T U V W X Y Z