Song name
# A B C D E F G H I J K L M N O P Q R S T U V W X Y Z

Blood On The Dance Floor - Death To Your Heart tab

This is my first tab so I hope it's good. This was done by ear.

Intro:
E--0~----3~-5~-7~- | 
A-----3~---------- |
D----------------- | x2
G----------------- |
B----------------- |
e----------------- |

Verse 1:
*palm mute*
E-0-----3--5--7-- |
A-2--3--5--7--9-- |
D-2--5--5--7--9-- | x4
G----5----------- |
B---------------- |
e---------------- |

Chorus:
E-0-----3--5--7-- |
A-2--3--5--7--9-- |
D-2--5--5--7--9-- | x4
G----5----------- |
B---------------- |
e---------------- |

Verse 2: Same as Verse 1

Chorus

Bridge:
*palm mute*
E-0-----3--5--7-- |
A-2--3--5--7--9-- |
D-2--5--5--7--9-- | x2 (last one end on [577xxx]
G----5----------- |
B---------------- |
e---------------- |

Chorus

Intro

I hope this tab helped you =) Tabbed by Lizzi Lizard <3
Tap to rate this tab
# A B C D E F G H I J K L M N O P Q R S T U V W X Y Z