Song name
# A B C D E F G H I J K L M N O P Q R S T U V W X Y Z

Blood On The Dance Floor - Horrifically Delicious tab

-------------------------------------------------------------------------------
        Horrifically Delicious - Blood On The Dance Floor
-------------------------------------------------------------------------------
Tabbed by: Obsidion123
E-mail:asmnatty@hotmail.co.uk

Tuning: E standard

Intro
e|---------------------------------------------------------------------------|
B|---------------------------------------------------------------------------|
G|---------------------------------------------------------------------------|
D|---------------------------------------------------------------------------|
A|--0-2-0--0-2-0--0-2-0-3-0-2------------------------------------------------|
E|------------------------------0-2-0--0-2-0--0-2-0-3-0-2--------------------|

verse (this is all palm muted)
e|---------------------------------------------------------------------------|
B|---------------------------------------------------------------------------|
G|---------------------------------------------------------------------------|
D|--5-5-5-5-5----------------------------------------------------------------|
A|--3-3-3-3-3-5-5-5-5-5--7-7-7-7-7-3-3-3-3-3---------------------------------|
E|------------3-3-3-3-3--5-5-5-5-5-1-1-1-1-1---------------------------------|

chorus (this ISN'T Palm muted)
e|---------------------------------------------------------------------------|
B|---------------------------------------------------------------------------|
G|--5-5-5-5-5-5-5------------------------------------------------------------|
D|--5-5-5-5-5-5-5--5-5-5-5-5-5-5--7-7-7-7-7-7-7--3-3-3-3-3-3-3---------------|
A|--3-3-3-3-3-3-3--5-5-5-5-5-5-5--7-7-7-7-7-7-7--3-3-3-3-3-3-3---------------|
E|-----------------3-3-3-3-3-3-3--5-5-5-5-5-5-5--1-1-1-1-1-1-1---------------|

verse 2 (jayys singing part)
e|---------------------------------------------------------------------------|
B|---------------------------------------------------------------------------|
G|--7-8-9-7-8---7-8-7-8-7-5--------------------------------------------------|
D|---------------------------------------------------------------------------|
A|------------------------------REPEAT THIS----------------------------------|
E|---------------------------------------------------------------------------|

last chorus
e|---------------------------------------------------------------------------|
B|---------------------------------------------------------------------------|
G|--5-5-5-5-5-5-5------------------------------------------------------------|
D|--5-5-5-5-5-5-5--5-5-5-5-5-5-5--7-7-7-7-7-7-7--3-3-3-3-3-3-3---------------|
A|--3-3-3-3-3-3-3--5-5-5-5-5-5-5--7-7-7-7-7-7-7--3-3-3-3-3-3-3---------------|
E|-----------------3-3-3-3-3-3-3--5-5-5-5-5-5-5--1-1-1-1-1-1-1---------------|

outro
e|---------------------------------------------------------------------------|
B|---5---5---5-0-1--5---5---5-6-5--------------------------------------------|
G|-----5---5----------5---5--------7-5---------------------------------------|
D|---------------------------------------------------------------------------|
A|----------------------------------REPEAT-----------------------------------|
E|---------------------------------------------------------------------------|
Tap to rate this tab
# A B C D E F G H I J K L M N O P Q R S T U V W X Y Z