Song name
# A B C D E F G H I J K L M N O P Q R S T U V W X Y Z

Blood On The Dance Floor - Sexting tab

-------------------------------------------------------------------------------
                  Sexting - Blood On The Dance Floor
-------------------------------------------------------------------------------
Tabbed by: Obsidion123
E-mail: asmnatty@hotmail.co.uk

Tuning: Drop D

X=palm mute
H=hammer on
P=pull off
intro )[pacman sounding part)
e|---------------------------------------------------------------------------|
B|---------------------------------------------------------------------------|
G|---------------------------------------------------------------------------|
D|--2------------------------------------------------------------------------|
A|--2----HOLD THIS!----------------------------------------------------------|
D|--2------------------------------------------------------------------------|

e|---------------------------------------------------------------------------|
B|---------------------------------------------------------------------------|
G|---------------------------------------------------------------------------|
D|--2-2-2--2-2-2--2-2-2--2-2-2--2-2-0----------------------------------------|
A|--2-2-2--2-2-2--2-2-2--2-2-2--2-2-0----------------------------------------|
D|--2-2-2--2-2-2--2-2-2--2-2-2--2-2-0----------------------------------------|
    X X    X X    X X    X X    X X

VERSE
    Less than three is just a tease....
e|---------------------------------------------------------------------------|
B|---------------------------------------------------------------------------|
G|--7-7-7-5-7-8-8-8-8-7--8-8--8-7-8-7-7-7-7-5--------------------------------|
D|---------------------------------------------------------------------------|
A|---------------------------------------------------------------------------|
D|---------------------------------------------------------------------------|
repeat this til the chorus

Chorus
    i wanna f you hard....
e|--6-6-6-5-5-5-5-6-5-6-5-10-10-6-5-5-5-3-5-6-8------------------------------|
B|---------------------------------------------------------------------------|
G|---------------------------------------------------------------------------|
D|---------------------------------------------------------------------------|
A|---------------------------------------------------------------------------|
D|---------------------------------------------------------------------------|


e|--6-6-6-5-5-5-5-6-5-6-5---10-10-6-5-5-5-3----------------------------------|
B|---------------------------------------------------------------------------|
G|---------------------------------------------------------------------------|
D|---------------------------------------------------------------------------|
A|---------------------------------------------------------------------------|
D|---------------------------------------------------------------------------|
repeat 

   YOU KNOW YOU WANT SOME MORE!
e|---------------------------------------------------------------------------|
B|---------------------------------------------------------------------------|
G|---------------------------------------------------------------------------|
D|--2-2-2--2-2-2--2-2-2--2-2-2--2-2-0----------------------------------------|
A|--2-2-2--2-2-2--2-2-2--2-2-2--2-2-0----------------------------------------|
D|--2-2-2--2-2-2--2-2-2--2-2-2--2-2-0----------------------------------------|
    X X    X X    X X    X X    X X

VERSE
    when i tend to....
e|---------------------------------------------------------------------------|
B|---------------------------------------------------------------------------|
G|--7-7-7-5-7-8-8-8-8-7--8-8--8-7-8-7-7-7-7-5--------------------------------|
D|---------------------------------------------------------------------------|
A|---------------------------------------------------------------------------|
D|---------------------------------------------------------------------------|
repeat this til the chorus

Chorus
e|--6-6-6-5-5-5-5-6-5-6-5-10-10-6-5-5-5-3-5-6-8------------------------------|
B|---------------------------------------------------------------------------|
G|---------------------------------------------------------------------------|
D|---------------------------------------------------------------------------|
A|---------------------------------------------------------------------------|
D|---------------------------------------------------------------------------|


e|--6-6-6-5-5-5-5-6-5-6-5---10-10-6-5-5-5-3----------------------------------|
B|---------------------------------------------------------------------------|
G|---------------------------------------------------------------------------|
D|---------------------------------------------------------------------------|
A|---------------------------------------------------------------------------|
D|---------------------------------------------------------------------------|

bridge
    there i go....
e|--6-6-6-5-5-5-5-6-5-6-5-10-10-6-5-5-5-3-5-6-8------------------------------|
B|---------------------------------------------------------------------------|
G|---------------------------------------------------------------------------|
D|---------------------------------------------------------------------------|
A|---------------------------------------------------------------------------|
D|---------------------------------------------------------------------------|


e|--6-6-6-5-5-5-5-6-5-6-5---10-10-6-5-5-5-3----------------------------------|
B|---------------------------------------------------------------------------|
G|---------------------------------------------------------------------------|
D|---------------------------------------------------------------------------|
A|---------------------------------------------------------------------------|
D|---------------------------------------------------------------------------|

Chorus
e|--6-6-6-5-5-5-5-6-5-6-5-10-10-6-5-5-5-3-5-6-8------------------------------|
B|---------------------------------------------------------------------------|
G|---------------------------------------------------------------------------|
D|---------------------------------------------------------------------------|
A|---------------------------------------------------------------------------|
D|---------------------------------------------------------------------------|


e|--6-6-6-5-5-5-5-6-5-6-5---10-10-6-5-5-5-3----------------------------------|
B|---------------------------------------------------------------------------|
G|---------------------------------------------------------------------------|
D|---------------------------------------------------------------------------|
A|---------------------------------------------------------------------------|
D|---------------------------------------------------------------------------|

OUTRO
e|---------------------------------------------------------------------------|
B|---------------------------------------------------------------------------|
G|---------------------------------------------------------------------------|
D|--2-2-2--2-2-2--2-2-2--2-2-2--2-2-0----------------------------------------|
A|--2-2-2--2-2-2--2-2-2--2-2-2--2-2-0----------------------------------------|
D|--2-2-2--2-2-2--2-2-2--2-2-2--2-2-0----------------------------------------|
    X X    X X    X X    X X    X X
Tap to rate this tab
# A B C D E F G H I J K L M N O P Q R S T U V W X Y Z