Song name
# A B C D E F G H I J K L M N O P Q R S T U V W X Y Z

Blood On The Dance Floor - Dont Want To Be Like You tab

-----------------------------------------------------------------------------
          Don't Want To Be Like You -- Blood On The Dance Floor
-----------------------------------------------------------------------------

Tabbed by: Devin
E-mail: NotOkayDevin@gmail.com

Tuning: Standard

Intro:
e|--------------------------------------------------------------------------|
B|----4-h5---5---4---4-------------------4-h5---5---4---4-------------------|
G|-----------------------6---6---4~-------------------------6---6---4~------|
D|--------------------------------------------------------------------------|
A|--------------------------------------------------------------------------|
E|--------------------------------------------------------------------------|

e|--------------------------------------------------------------------------|
B|----4-h5---5---4---4------------------------------------------------------|
G|-----------------------6---6---4~-----4-h6--4-h6--4-h6--4~--4-----4--4~---|
D|---------------------------------------------------------------6----------|
A|--------------------------------------------------------------------------|
E|--------------------------------------------------------------------------|

Or:

E, B, A, Am.

Do that 2 times

Verse:
(For the B and the C# use power chords)

B:   
e|------------------------------|
B|------------------------------|
G|-----4------------------------|
D|-----4------------------------|
A|-----2------------------------|
E|------------------------------|

C#:
e|------------------------------|
B|------------------------------|
G|-----6------------------------|
D|-----6------------------------|
A|-----4------------------------|
E|------------------------------|


E
I feel like you see right through me,
B
And never ever really knew me-
              A         Am                E
Don't want to be around when you start to fall.

E
I've got to follow all of my dreams;
B
Gotta figure out what this life means-
              A         Am
Don't want to be around when you fall.

E
They say that life's an open book;
B
Turn the page and take another look.
C#        A        E
You can't judge me -- by my cover,
C#       A            E
It's not what you see -- but what you discover!

C#            A                E
Can't push me down, it'll come around,
                    B
Everything that you put me through-
A
I, I, I, I, I don't want to be like you...

(repeat intro)

E
I may be different, but I'm beautiful.
B
Every diamond's individual!
A        Am                  E
Everyone shines in their own way.

E
Kaleidoscopes have many different colors,
B
I'll never be just like all the others.
      A                    Am
Gotta open your mind, I'll prove you wrong.

E
They say that life's an open book;
B
Turn the page and take another look.
C#        A        E
You can't judge me -- by my cover,
C#       A            E
It's not what you see -- but what you discover.

C#            A                E
Can't push me down, it'll come around,
                    B
Everything that you put me through-
A
I, I, I, I, I don't want to be like you...

Bridge:

E, B, C#, A

E                             B
They say the grass is greener on the other side,
C#                          A
But from where I'm standing it looks just fine.
E                          B
I'll always be an outcast; I'll never get in line;
C#                           A
You keep on living your life and I'll live mine.

C#        A        E
You can't judge me by my cover,
C#        A        E
You can't judge me by my cover,
C#       A            E
It's not what you see but what you discover.

C#            A                E
Can't push me down, it'll come around,
                    B
Everything that you put me through-
A
I, I, I,I, I don't want to be like you...

C#        A        E
You can't judge me by my cover,
C#       A            E
It's not what you see but what you discover!

C#            A                E
Can't push me down, it'll come around,
                        B
Everything that you put me through-
A
I, I, I, I, I don't want to be like you...

End on E
-----------------------------------------------------------------------------
Pretty sure this is 100% correct. Plus my first tab so bear with me on this one.
Enjoy! 
Tap to rate this tab
# A B C D E F G H I J K L M N O P Q R S T U V W X Y Z