Song name
# A B C D E F G H I J K L M N O P Q R S T U V W X Y Z

Blood On The Dance Floor - Ima Monster tab

-------------------------------------------------------------------------------
                             Ima monster - Blood On The Dance Floor
-------------------------------------------------------------------------------
Tabbed by: Obsidion321
E-mail: asmnatty@hotmail.co.uk
this is the tab to the backing track and i pretty much got it 100% so enjoy ^.^ SGTC <3

Tuning: E standard

Intro
e|-10-10-10-10-10-10-10-10-10 -----------------------------------------------|
B|---------------------------------------------------------------------------|
G|--------------------REPEAT-------------------------------------------------|
D|---------------------------------------------------------------------------|
A|---------------------------------------------------------------------------|
E|---------------------------------------------------------------------------|

Part after the verse 
"LETS GO!!" "OH NO!"
e|-10-10-10-10-10-10-10-10-10-17-17-17-17-15-15-15-15-12-15------------------|
B|---------------------------------------------------------------------------|
G|---------------------------------------------------------------------------|
D|---------------------------------------------------------------------------|
A|---------------------------------------------------------------------------|
E|---------------------------------------------------------------------------|

Verse 
Cant stop the tickles they call me doctor giggles...
e|-10-10--10-10-12-----------------------------------------------------------|
B|-----------------10-10-10-10-12--------------------------------------------|
G|--------------------------------7------------------------------------------|
D|-------------------------REPEAT TIL CHORUS---------------------------------|
A|---------------------------------------------------------------------------|
E|---------------------------------------------------------------------------|

Chorus
e|--------------------------------17--14-14-15-15-17-17-17-15----------------|
B|-19-19-19-19-19-17-17-17--17-15--------------------------------------------|
G|---------------------------------------------------------------------------|
D|---------------------------------------------------------------------------|
A|---------------------------------------------------------------------------|
E|---------------------------------------------------------------------------|

Repeat XD
Tap to rate this tab
# A B C D E F G H I J K L M N O P Q R S T U V W X Y Z