Song name
# A B C D E F G H I J K L M N O P Q R S T U V W X Y Z

Blood On The Dance Floor - Deja Vu chords

Highlighted       Show chord diagrams
Tuning: Standard


Intro:

Am
Time doesn't fly
C
It makes memories
G                    Em
You said "Close your eyes and please remember me"
Am
I didn't say goodbye
   C
So now your taunting me
G
I wish you never died 
    Em
Without you I feel so empty


Solo:

e|--------------------------------------------------------------------------|
B|-----------------------------------------------------10-------------------|
G|--12--11---------------12--12--------------------11-----11----------------|
D|-----------12--10~~------------12--10--12~~-----------------12~~----------|
A|--------------------------------------------------------------------------|
E|--------------------------------------------------------------------------|

e|--------------------------------------------------------------------------|
B|--------------8--10-------------------------------------------------------|
G|--11--12------------11--11/12~~-------------------------------------------|
D|----------12--------------------------------------------------------------|
A|--------------------------------------------------------------------------|
E|--------------------------------------------------------------------------|

x2


Verse:

Am
You used to say
         C
That I'd miss you when your gone
G
You were so right
           Em
Seeing you hurt felt so wrong
Am
But sometimes when I'm alone
  C
I get this feeling and I know
G               Em
Your spirit has carried on

Chorus:

Am            C
Ghost from my past
       G                Em
You've come back like a haunting
Am          C             G         Em
I get these chills when I sense you all around me

Am            C
You left this world behind
G              Em
And I miss you dearly
Am             C
I can hear the echoes of you
G              Em
It's just like Deja Vu
Am          C
You forever changed the stars
G            Em
I can see so clearly
Am               C
All these things I say are true
G              Em
It's just like Deja Vu


Repeat solo during bridge:

I still feel you coming through
My imagination or the truth


Chorus: 

Am            C
Ghost from my past
       G                Em
You've come back like a haunting
Am          C             G         Em
I get these chills when I sense you all around me

Am            C
You left this world behind
G              Em
And I miss you dearly
Am             C
I can hear the echoes of you
G              Em
It's just like Deja Vu
Am          C
You forever changed the stars
G            Em
I can see so clearly
Am               C
All these things I say are true
G              Em
It's just like Deja Vu

Am    C     G     Em

Repeat solo one last time
And yay you're done!
Tap to rate this tab
# A B C D E F G H I J K L M N O P Q R S T U V W X Y Z