Song name
# A B C D E F G H I J K L M N O P Q R S T U V W X Y Z

Blood On The Dance Floor - Wheres My Wonderland tab

I haven't figured it all out
but I might add if I figure it out later

Intro
E-------------------------------------|
B-------------------------------------|
G-----3---------2--------3--------5~--|
D---5---5-----4---4----5---5----4-----|
A-------------------------------------|
D-5---------0--------5--------0-------|

E-------------------------------------|
B-------------------------------------|
G-----3---------2--------0--------0---|
D---5---5-----4---4----1---1----0---0-|
A-------------------------------------|
D-5---------0--------1--------0-------|

Pre-Chorus
E---------------------|
B---------------------|
G---------------------|
D-5----1----8----7----|
A-5----1----8----8----|
D-5----1----8----7----|
Tap to rate this tab
# A B C D E F G H I J K L M N O P Q R S T U V W X Y Z