Song name
# A B C D E F G H I J K L M N O P Q R S T U V W X Y Z

Blood On The Dance Floor - Gfa tab

the guitar is in the end
and you're going to use a lot of inch harmonics
I don't the chug is tabbed out right but you should understand
that it's a chug

E----------------------------------|
B----------------------------------|
G----------------------------------|
D----------------------------------|
A------------------------8-7-5h7-0-|P
D-00000000----00000000--0-0-0------|
Pm........    ........  . . .

E---------------------------------|
B---------------------------------|
G---------------------------------|
D---------------------------------|
A------------------------8-7-0----|
D-00000000----00000000--0-0-0-----|
Pm........    ........  . . .

E----------------------------------|
B----------------------------------|
G----------------------------------|
D----------------------------------|
A------------------------8-7-5h7-0-|P
D-00000000----00000000--0-0-0------|
Pm........    ........  . . .

E---------------------------------|
B---------------------------------|
G---------------------------------|
D-----------------------10-9-2----|
A------------------------8-7-0----|
D-00000000----00000000--0-0-0-----|
Pm........    ........  . . .

and then these chords are repeated after words
E-----------------------|
B-----------------------|
G-----------------------|
D-7----5----10----3--5--|
A-7----5----10----3--5--|
D-7----5----10----3--5--|

Tab index
Pm & ...- Palm mute
P- pinch harmonic
H- hammer on
Tap to rate this tab
# A B C D E F G H I J K L M N O P Q R S T U V W X Y Z