Song name
# A B C D E F G H I J K L M N O P Q R S T U V W X Y Z

Blood On The Dance Floor - Suicide Club tab

this is basically the whole song

Tuning: Standard

e|--12--14------14---12--14-------15---14--12------15---14--12---------------|
B|---------15---------------15----------------15---------------15------------|
G|---------------------------------------------------------------------------|
D|---------------------------------------------------------------------------|
A|---------------------------------------------------------------------------|
E|---------------------------------------------------------------------------|



Bass:

G|---------------------------------------------------------------------------|
D|---------------------------------------------------------------------------|
A|---12--12--12--12---7--7--7--7----9--9--9--9----5--5--5--5-----------------|
E|-10--10--10--10----5--5--5--5----7--7--7--7----3--3--3--3------------------|
Tap to rate this tab
# A B C D E F G H I J K L M N O P Q R S T U V W X Y Z