Guitaretab - guitar tabs
Song name
# A B C D E F G H I J K L M N O P Q R S T U V W X Y Z

Blood Red Shoes - Say Something Say Anything tab

-----------------------------------------------
BLOOD RED SHOES - SAY SOMETHING, SAY ANYTHING
-----------------------------------------------
tabbed by Captain Planet (deanpesani@hotmail.com)

This is the brilliant new single from Blood Red Shoes. It sounds accurate to me whan I play it. 

Please try it and rate it :)

On the actual track the guitar is all doubled, that's why it sounds so fat, so dial in a 

bassy/middly tone to compensate.


INTRO

e|----------------------------------------------|
b|----------------------------------------------|
g|----------------------------------------------|
d|--7-7--12-12-0--------------------------------| X2
a|---------------7-7--7-7-xx--------------------|
e|---------------------------7-7--7-7--7-7--7-7-|


INTRO 2
e|---------------------------------------------------------|
b|---------------------------------------------------------|
g|--11-11-11-11-11-----------------------------------------|
d|--12-12-12-12-12---12-12-12-12-12----7-7--7-7--7-7--7-7--| X4
a|--12-12-12-12-12---x--x--x--x--x-----x-x--x-x--x-x--x-x--|
e|--10-10-10-10-10---12-12-12-12-12----7-7--7-7--7-7--7-7--| 


PRE-VERSE
e|------------------|------------------|-----------------|------------------|
b|------------------|------------------|-----------------|------------------|
g|----------0-------|------------------|-----------------|------------------|
d|------3-----3---3-|------0-----0-----|-----------------|------------------| X2
a|------------------|------------------|-----0-----0-----|-----0-----0---0--|
e|--5-5---5-----5---|--3-3---3-3---3-0-|-1-1---1-1---1-1-|-1-1---1-1---1----|


VERSE (same as PRE-VERSE) X3

then
e|------------------|------------------|-----------------|------------------|
b|------------------|------------------|-----------------|------------------|
g|----------0-------|------------------|-----------------|------------------|
d|------3-----3---3-|------0-----0-----|-----------------|------------------| X1
a|------------------|------------------|-----------------|------------------|
e|--5-5---5-----5---|--3-3---3-3---3-0-|-1-1-1-1-1-1-1-1-|-1-1-1-1-1-1-1----|


CHORUS
e|---------------------------------------------------------|
b|---------------------------------------------------------|
g|--11-11-11-11-11-----------------------------------------|
d|--12-12-12-12-12---12-12-12-12-12----7-7--7-7--7-7--7-7--| X4
a|--12-12-12-12-12---x--x--x--x--x-----x-x--x-x--x-x--x-x--|
e|--10-10-10-10-10---12-12-12-12-12----7-7--7-7--7-7--7-7--|
                   "well you all said nothin about this tonight..."

[ Tab from: http://www.guitaretab.com/b/blood-red-shoes/106455.html ]
PRE-VERSE
e|------------------|------------------|-----------------|------------------|
b|------------------|------------------|-----------------|------------------|
g|----------0-------|------------------|-----------------|------------------|
d|------3-----3---3-|------0-----0-----|-----------------|------------------| X1
a|------------------|------------------|-----0-----0-----|-----0-----0---0--|
e|--5-5---5-----5---|--3-3---3-3---3-0-|-1-1---1-1---1-1-|-1-1---1-1---1----|


VERSE (as before)


CHORUS X3

then
e|---------------------------------------------------------------|
b|---------------------------------------------------------------|
g|--11-11-11-11-11-----------------------------------------------|
d|--12-12-12-12-12---12-12-12-12-12----7-7--7-7--7-7--7-7--777---|
a|--12-12-12-12-12---x--x--x--x--x-----x-x--x-x--x-x--x-x--xxx---|
e|--10-10-10-10-10---12-12-12-12-12----7-7--7-7--7-7--7-7--777---|           
..........................................................."so tell me..."


BRIDGE
e|----------------------------------------------------|
b|----------------------------------------------------|
g|----------------------------------------------------|
d|----------------------------------------------------| X2
a|--55555555-22277777-99999999/1212121212121212-------|
e|--33333333-00055555-77777777/1010101010101010-------|
  "how long, how long, how long can you miss someone?"

*10s are ten not 1 and 0.


then                                                 X4
e|---------------------|-------------------------------|
b|---------------------|-------------------------------|
g|---------------------|-----------1212121212121212--|
d|---------------------|-----------------------------|
a|--55555555-22277777--|--99999999--1010101010101010---|
e|--33333333-00055555--|--77777777---------------------|


OUTRO
e|---------------------------------------------------------|
b|---------------------------------------------------------|
g|--11-11----11-11-----------------------------------------|
d|--12-12----12-12---12-12----12-12----7-7--7-7--7-7--7-7--| X1
a|--12-12----12-12---x--x-----x--x-----x-x--x-x--x-x--x-x--|
e|--10-10----10-10---12-12----12-12----7-7--7-7--7-7--7-7--|


e|---------------------------------------------------------|
b|---------------------------------------------------------|
g|--11-11-11-11-11-----------------------------------------|
d|--12-12-12-12-12---12-12-12-12-12----7-7--7-7--7-7--7-7--| X3
a|--12-12-12-12-12---x--x--x--x--x-----x-x--x-x--x-x--x-x--|
e|--10-10-10-10-10---12-12-12-12-12----7-7--7-7--7-7--7-7--|
   "well you all said nothing about this tonight..."
   "yeah you all said nothing about this tonight."
Related for Say Something Say Anything tab