Song name
# A B C D E F G H I J K L M N O P Q R S T U V W X Y Z

Blood Red Shoes - Take The Weight tab

-------------------------------------------------------------------------------
			     TAKE THE WEIGHT - Blood Red Shoes
-------------------------------------------------------------------------------
Tabbed by: Trimbo
Email: hairypineapple@hotmail.com

Tuning: Standard        

W/ Heavy Distortion


BUY THEIR ALBUM! (Box of Secrets) ITS AMAZING!

  

  Intro/Pre-Verse
(Pick the note straight after every slide)
e|---------------------------------------------------------------------------|
B|---------------------------------------------------------------------------|
G|---------------------------------------------------------------------------|
D|---------------------------------------------------------------------------|
A|---------------------------------------------------------------------------|
E|--17--17/-15--15/-12--12/-10--10/-17--17/-15--15/-12--12/-10-10/-----------|


  Verse:
e|---------------------------------------------------------------------------|
B|---------------------------------------------------------------------------|
G|---------------------------------------------------------------------------|
D|---------------------------------------------------------------------------|
A|---------------------------------------------------------------------------|
E|--5-5-5-5-5-5-5-5-9-9-9-4-4-4-4-4-7-7-7-7-7-7-7-7-13-13-13-13-13-13-13-13--|



  Chorus:
e|---------------------------------------------------------------------------|
B|---------------------------------------------------------------------------|
G|---------------------------------------------------------------------------|
D|--7-7-7-7-7-7--5-5-5-5-5-5--10/-3------------------------------------------|
A|--7-7-7-7-7-7--5-5-5-5-5-5--10/-3------------------------------------------|
E|--5-5-5-5-5-5--3-3-3-3-3-3--8/--1------------------------------------------|


  Verse #3:
e|---------------------------------------------------------------------------|
B|---------------------------------------------------------------------------|
G|---------------------------------------------------------------------------|
D|---------------------------------------------------------------------------|
A|---------------------------------------------------------------------------|
E|--17-(x8)--15-(x8)--12-(x8)--10-(x8)---------------------------------------|



  Bridge:
e|---------------------------------------------------------------------------|
B|---------------------------------------------------------------------------|
G|---------------9999999999999999--------------------------------------------|
D|--2~-----2~----9999999999999999--------------------------------------------|
A|--2~-----2~----7777777777777777--------------------------------------------|
E|--0~-----0~----------------------------------------------------------------|



The order of things is easy enough for you to figure out by yourself!


| /  slide up
| \  slide down
| h  hammer-on
| p  pull-off
| ~  vibrato
| +  harmonic
| x  Mute note
Tap to rate this tab
# A B C D E F G H I J K L M N O P Q R S T U V W X Y Z