Song name
# A B C D E F G H I J K L M N O P Q R S T U V W X Y Z

Blood Red Shoes - This Is Not For You tab

-------------------------------------------------------------------------------
		   THIS IS NOT FOR YOU - Blood Red Shoes
-------------------------------------------------------------------------------
Tabbed by: Trimbo
Email: Hairypineapple@hotmail.com

Tuning: Standard

...What a song
Its a TINY bit awkward to get the rhythm right in places

edit: 27th April, changed the C in the chorus to a C#
edit: Outro, changed E to D

  Intro/Verse:
e|---------------------------------------------------------------------------|
B|---------------------------------------------------------------------------|
G|---------------------------------------------------------------------------|
D|---------------------------------------------------------------------------|
A|---------------------------------------------------------------------------|
E|-14-14-14-14-14-14-14-9-9-9-9-9-9-9-9-7-7-7-7-7-7-7-7-10-10-10-10-10-10-10-|



  Chorus:
e|---------------------------------------------------------------------------|
B|---------------------------------------------------------------------------|
G|--6-6-6-6-6-6-6-6----------------------------------------------------------|
D|--6-6-6-6-6-6-6-6-7-7-7-7-7-7-7-7------------------------------------------|
A|--4-4-4-4-4-4-4-4-7-7-7-7-7-7-7-7------------------------------------------|
E|------------------5-5-5-5-5-5-5-5------------------------------------------|

  Bitta Heavy Distortion here:
e|---------------------------------------------------------------------------|
B|---------------------------------------------------------------------------|
G|---------------------------------------------------------------------------|
D|--4-4-4-4-4-4-4-4-2-2-2-2-2-2-2-2------------------------------------------|
A|--4-4-4-4-4-4-4-4-2-2-2-2-2-2-2-2------------------------------------------|
E|--2-2-2-2-2-2-2-2-0-0-0-0-0-0-0-0------------------------------------------|



  Bridge/Outro (Its f*cking savage):
e|---------------------------------------------------------------------------|
B|---------------------------------------------------------------------------|
G|---------------------------------------------------------------------------|
D|---------------------------------------------------------------------------|
A|-7~-9-9-9-9-9-9-9--0-5-5-5-5-4-4-0-0--2-2-2-2-2-2-2-2-0--------------------|
E|--------------------------------------------------------2-2-2-2-2-2-2-2----|

        [      11's     ]  
e|---------------------------------------------------------------------------|
B|---------------------------------------------------------------------------|
G|---9~-11111111111111111---7-7-7-7-6-6-----4-4-4-4-4-4-4-4------------------|
D|---9~-11111111111111111---7-7-7-7-6-6-----4-4-4-4-4-4-4-4-4-4-4-4-4-4-4-4-4|
A|-0-7~-9-9-9-9-9-9-9-9-9-0-5-5-5-5-4-4-0-0-2-2-2-2-2-2-2-2-4-4-4-4-4-4-4-4-4|
E|----------------------------------------------------------2-2-2-2-2-2-2-2-2|




| /  slide up
| \  slide down
| h  hammer-on
| p  pull-off
| ~  vibrato
| +  harmonic
| x  Mute note
===============================================================================
Tap to rate this tab
# A B C D E F G H I J K L M N O P Q R S T U V W X Y Z