Guitaretab - guitar tabs
Song name
# A B C D E F G H I J K L M N O P Q R S T U V W X Y Z

Blood Red Shoes - Try Harder tab

e  ||   -3-x--3-3--x-   ---||
B  || -0-x--0-0--x- -----||
G  ||   -0-x--0-0--x-   ---||
D  ||   -0-x--0-0--x-   ---||
A  || -2-x--2-2--x- -----||
E   ||   -3-x--3-3--x-   --||

e  ||   ------------|--------   ---||
B  || ------------|-------- -----||
G  ||   -x--x-x-----|--------   ---||
D  ||   -x--x-x-----|--------   ---||
A  || -2--2-2-----|-2------ -----||
E   ||   -3--3-3/----|-0------   --||
[ Tab from: http://www.guitaretab.com/b/blood-red-shoes/109004.html ]
e ||   ----------------   ---||
B || ---------------- -----||
G ||   ----------------   ---||
D ||   ----------------   ---||
A || ----2-2----2-2-- -----||
E ||    -0-0----3-3-----   --||

e  ||   ------------------------------------ ||  --------------------------------------  ||
B  || ----------------------------------- || -------------------------------------- -||
G ||   ------------------------------------ ||    -------------------------------------- ||
D ||   ------------------------------------ ||   --------------------------------------  ||
A ||  ----------------------------------- ||-6-6-x-6-7-7-6-6----------------------  -||
E  ||   -7-7-x-8-8-7-7-\-(3)-3-3-x-3-3-0-0-0- ||  -7-7-x-7-8-8-7-7-\-(3)-3-3-x-3-3-0-0-0-||
Related for Try Harder tab