Song name
# A B C D E F G H I J K L M N O P Q R S T U V W X Y Z

Blood Red Shoes - Doesnt Matter Much tab

Artist: Blood Red Shoes
Song: Doesn't matter much

Pretty simple song really. Its just standard tuning not drop D like everyone says.

My first Tab i hope you like it :)


Intro/verse:

~ - Bend
-----------------------------------------------------------------------------|
-----------------------------------------------------------------------------|
-----------------------------------------------------------------------------|
-----------------------------------------------------------------------------|
-----------------------------------------------------------------------------|
--3-3-33333---3~---3-3-33---3~---3~-----0-0-0-12-12-12-12--0-0-0-12-12-12-15-|
x4


Chorus:

----------------------------------------------------------------------------|
----------------------------------------------------------------------------|
--4-4-4444---333333-----------14---------14--------14--------14-------------|
--4-4-4444---333333-----------14---------14--------14--------14-------------|
--2-2-2222---555555----0--0---12---0--0--12--0--0--12--0--0--12-------------|
----------------------------------------------------------------------------|
x2


Verse is the same as before

Solo Thingy:

---------------------------------------------------------------------------|
---------------------------------------------------------------------------|
---------------------------------------------------------------------------|
---------------------------------------------------------------------------|
---------------------------------------------------------------------------|
--7-33333-7-3-7-33333-7-3-7-33333-7-3-7-333-00-10-0-12-00000-10-0-12-00000-|

-----------------------------------------------------------------------------|
-----------------------------------------------------------------------------|
-----------------------------------------------------------------------------|
-----------------------------------------------------------------------------|
--------------------------14-14-14-14-14-14-14-14----------------------------|
10-0-12-00000-10-0-12-000--------------------------7-3333333-737-333333-737--|


-----------------|
-----------------|
-----------------|
-----------------|
-----------------|
33333-737-3333333 Pause for the vocals then play chorus again untill the end


Lyrics.
Have it your way,
We'll have the answers in a week (oooh oooh ah ah oh)
We'll take the mesurements
And work it out with the sums    (oooh oooh ah ah oh)
Coz their way, what a way
Anyhow it doesn't matter much    (oooh oooh ah ah oh)
Coz their way, what a way.
Anyhow now it's got stuck
It just wasn't enough

YEAH YEAH YEAH YEAH
Low low low... low low low
YEAH YEAH YEAH YEAH
find a reason why, find a reason why.

Pay attention son
You might learn something   (oooh oooh ah ah oh)
work real hard at it
and just look what you could be (oooh oooh ah ah oh)
you soak it up every word of advise
still its missing    (oooh oooh ah ah oh)
searching for something so invisible
raise your glasses
to cheer for what your not

YEAH YEAH YEAH YEAH
low low low... low low low
YEAH YEAH YEAH YEAH
find a reason why, find a reason why.


Low low low... low low low
YEAH YEAH YEAH YEAH
find a reason why find a reason why I......


I think thats right but im not 100% sure... message me if its  wrong
Tap to rate this tab
# A B C D E F G H I J K L M N O P Q R S T U V W X Y Z