Guitaretab - guitar tabs
Song name
# A B C D E F G H I J K L M N O P Q R S T U V W X Y Z

Blood Red Shoes - Doesnt Matter Much tab

-------------------------------------------------------------------------------
			     Doesn't Matter Much - Blood Red Shoes
-------------------------------------------------------------------------------
Tabbed by: Fraz01

Tuning: Standard

It's difficult to tab the timing so listen to the song please. The Verses are played 
loosely, the chorus is in straight eighths.

FIRST VERSE
Bend the string gradually, only slightly when playing G note (3rd fret, shown by "^"). 
listen to the recording to get the idea.
e|-----------------------------------------------------------------------------|
B|-----------------------------------------------------------------------------|
G|-----------------------------------------------------------------------------|
D|-----------------------------------------------------------------------------|
A|-----------------------------------------------------------------------------|
E|3-3-3-33-3-3-3-3-3^-3^-3-3-0-0-0-121212-12-12-1212-0-0-0-1212-12-12-12\------|

CHORUS
"Low low low        Low low low                     Yeah  yeah   yeah   yeah"
e|-----------------------------------------------------------------------------|
B|-----------------------------------------------------------------------------|
G|--------------------------------------12-12----------------------------------|
D|9-9-9-9-9-9-9/11/12-12-12-12-12-12-12-12-12-12/14-14--14-14--14-14--14-14----|
A|9-9-9-9-9-9-9/11/12-12-12-12-12-12-12-10-10-12/14-14--14-14--14-14--14-14----|
E|7-7-7-7-7-7-7/9-/10-10-10-10-10-10-10-------10/12-12--12-12--12-12--12-12----|

After the first chorus hit a D chord:

e|----------2----------------|
B|7---------3----------10----|
G|7----or---2----or----11----|
D|7---------0----------12----|
A|5--------------------12----|
E|---------------------10----|


SECOND VERSE
Not 100% sure about the 14s and 15s, there seems to be a bit of variation.
e|-----------------------------------------------------------------------------|
B|-----------------------------------------------------------------------------|
G|-----------------------------------------------------------------------------|
D|-----------------------------------------------------------------------------|
A|-----------------------------------------------------------------------------|
E|3-3-3-33-3-3-3-3-3^-3^-3-3-0-0-0-151515-15-15-14-0-0-0-151515-15-15-14\------|

Second Chorus is the same as the first.

SOLO
Starts off clean, I like to palm mute it though.
e|----------------------------------------------------|
B|----------------------------------------------------|
G|----------------------------------------------------|
D|----------------------------------------------------|
A|----------------------------------------------------|
E|15-12-12-12-12-12-12-151515-12-12-12-12-12-12-1515--|(play twice, building up)
[ Tab from: http://www.guitaretab.com/b/blood-red-shoes/181471.html ]
Distortion back on.
e|-----------------------------------------------------------------------------|
B|-----------------------------------------------------------------------------|
G|-----------------------------------------------------------------------------|
D|-----------------------------------------------------------------------------|
A|-----------------------------------------------------------------------------|
E|777\-3-3-3-3-3-3/-777\-3-3-3-3-3-3/-(play twice)-----------------------------|

e|-----------------------------------------------------------------------------|
B|-----------------------------------------------------------------------------|
G|-----------------------------------------------------------------------------|
D|-----------------------------------------------------------------------------|
A|-----------------------------------------------------------------------------|
E|0-15-0-17-000-000-0-15-0-17-000-000-0-15-0-17-000-000------------------------|

e|-----------------------------------------------------------------------------|
B|-----------------------------------------------------------------------------|
G|-----------------------------------------------------------------------------|
D|-----------------------------------------------------------------------------|
A|-----------------------------------------------------------------------------|
E|0-15-0-17-000-15/-17-17-17-17------------------------------------------------|


e|-----------------------------------------------------------------------------|
B|-----------------------------------------------------------------------------|
G|-----------------------------------------------------------------------------|
D|-----------------------------------------------------------------------------|
A|-----------------------------------------------------------------------------|
E|777\-3-3-3-3-3-3/-777\-3-3-3-3-3-3/-(play twice)-----------------------------|

Break, and then another chorus.

The final "Find a reason why" part is different:
e|-----------------------------------------------------------------------------|
B|-----------------------------------------------------------------------------|
G|-----------------------------------------------------------------------------|
D|9-9-9-9-9-9-9-9-7-7-7-7-7-7-7-7-2-2--2-2--2-2--2-2---------------------------|
A|9-9-9-9-9-9-9-9-7-7-7-7-7-7-7-7-2-2--2-2--2-2--2-2---------------------------|
E|7-7-7-7-7-7-7-7-5-5-5-5-5-5-5-5-0-0--0-0--0-0--0-0---------------------------|

The second time you play that there is a little overdub before the E5 chords which I 
figured out yet.

Sure I've got it pretty much dead-on though, please post any corrections in the comments.


| /  slide up
| \  slide down
| h  hammer-on
| p  pull-off
| ~  vibrato
| +  harmonic
| x  Mute note
===============================================================================
Related for Doesnt Matter Much tab