Song name
# A B C D E F G H I J K L M N O P Q R S T U V W X Y Z

Blood Red Shoes - When We Wake tab

I think this song is kinda easy to play and I'm 99% sure about the tab I've 
tell me if there's something wrong...I've been playing the guitar since october so 
I'm not so good 
it...

Verse [x23]
e|---------------------------------------------------------------|
B|---------------------------------------------------------------|
G|---------------------------------------------------------------|
D|--------------------------------1-1-1-1------------------------|
A|----------------2-2-2-2-2-2-2-2---------1-1-1-1-1-1-1-1-1-1-1-1|
E|2-2-2-2-2-2-2-2------------------------------------------------|


2nd Verse (it's the part when the music goes stronger)[x4]
e|---------------------------------------------------------------|
B|--------------------------------3-3-3-3------------------------|
G|----------------4-4-4-4-4-4-4-4-3-3-3-3-3-3-3-3-3-3-3-3-3-3-3-3|
D|4-4-4-4-4-4-4-4-4-4-4-4-4-4-4-4-1-1-1-1-3-3-3-3-3-3-3-3-3-3-3-3|
A|4-4-4-4-4-4-4-4-2-2-2-2-2-2-2-2---------1-1-1-1-1-1-1-1-1-1-1-1|
E|2-2-2-2-2-2-2-2------------------------------------------------|

Bridge
e|---------------------------------------------------------------|
B|---------------------------------------------------------------|
G|---------------------------------------------------------------|
D|2-2-2-2--------------------------------------------------------|
A|--------2-2-2-2-2-2-2-2-----------------2-2-2-2-2-2-2-2-2-2-2-2|
E|------------------------4-4-4-4-2-2-2-2------------------------|

e|---------------------------------------------------------------|
B|---------------------------------------------------------------|
G|---------------------------------------------------------------|
D|2-2-2-2--------------------------------------------------------|
A|--------2-2-2-2-2-2-2-2-----------------2-2-2-2-2-2-2-2-2-2-2-2|
E|------------------------4-4-4-4-2-2-2-2------------------------|

e|---------------------------------------------------------------|
B|---------------------------------------------------------------|
G|---------------------------------------------------------------|
D|1-1-1-1-4-4-4-4-4-4-4-4---------6-6-6-6-8-8-8-8-8-8-8-8-8-8-8-8|
A|------------------------1-1-1-1--------------------------------|
E|---------------------------------------------------------------|

e|---------------------------------------------------------------|
B|---------------------------------------------------------------|
G|---------------------------------------------------------------|
D|2-2-2-2--------------------------------------------------------|
A|--------2-2-2-2-2-2-2-2-----------------2-2-2-2-2-2-2-2-2-2-2-2|
E|------------------------4-4-4-4-2-2-2-2------------------------|

Outro
e|---------------------------------------------------------------|
B|---------------------------------------------------------------|
G|---------------------------------------------------------------|
D|--------------------------------1-1-1-1------------------------|
A|----------------2-2-2-2-2-2-2-2---------1-1-1-1-1-1-1-1-1-1-1-1|
E|2-2-2-2-2-2-2-2------------------------------------------------|

e|---------------------------------------------------------------|
B|---------------------------------------------------------------|
G|---------------------------------------------------------------|
D|--------------------------------1-1-1-1------------------------|
A|----------------2-2-2-2-2-2-2-2---------1-1-1-1-1-1-1-1-1-1-1--|
E|2-2-2-2-2-2-2-2-----------------------------------------------2|
Tap to rate this tab
 
# A B C D E F G H I J K L M N O P Q R S T U V W X Y Z