Song name
# A B C D E F G H I J K L M N O P Q R S T U V W X Y Z

Blood Red Shoes - Box Of Secrets tab

This Song Is Part Of The Single It's Getting Boring By The Sea...I'm Not Really Sure About How It Goes...But Try It...I Hope It's Right!!! Actually It Was Really Difficult To Find Out The Notes Laura-Mary Plays....there's too Distortion!!!!xD

Intro A/Verse A
e|-------------------------------|
B|-------------------------------|
G|-------------------------------|
D|-------------------------------|
A|-------------------------------|
E|8-8-8-7-7-7-7-7-7-7-7-7-7-7-7-7|

Intro B/Verse B
e|----------------------------------|
B|----------------------------------|
G|----------------------------------|
D|----------------------------------|
A|10-10-10-9-9-9-9-9-9-9-9-9-9-9-9-9|
E|8--8--8--7-7-7-7-7-7-7-7-7-7-7-7-7|


Chorus
e|---------------------------------------|
B|---------------------------------------|
G|---------------------------------------|
D|---------------------------------------|
A|---------------------------------------|
E|6--6--6--6--7-7-7-7-6--6--6--6--6-6-6-6|

Bridge A
e|------------------------------------------|
B|------------------------------------------|
G|------------------------------------------|
D|------------------------------------------|
A|------------------------------------------|
E|6--6--6--6--10-10-10-10-6--6--6--6-5-5-5-5|

Bridge B
e|---------------------------------------|
B|---------------------------------------|
G|---------------------------------------|
D|---------------------------------------|
A|---------------------------------------|
E|1313-1313-1313-1313-1010-1010-1010-1010|

Bridge C
e|--------------------|
B|--------------------|
G|--------------------|
D|--------------------|
A|--------------------|
E|88-88-88-88-66-66-66|

Ending
e|----------------------------------------|
B|----------------------------------------|
G|----------------------------------------|
D|----------------------------------------|
A|----------------------------------------|
E|8-----7---7-7-7-7-7-7-7-7-7-7-7--8-----7|

You Have To Play It In This Order:

Intro:	Intro A [x4]
	Intro B [x2]
Chorus [x2]
Verse:	Verse A [x3]
	Verse B [x1]
	Verse A [x2]
	Verse B [x2]
	Verse A [x4]
Chorus [x2]
Verse:	Verse A [x2]
	Verse B [x2]
	Verse A [x2]
	Verse B [x1]
	Verse A [x1]
Chorus [x3]
Bridge:	Bridge A [x2]
	Bridge B [x2]
	Bridge C [x1]
Verse:	Verse A [x3]
	Verse B [x1]
	Verse A [x2]
	Ending [x1]
Tap to rate this tab
 
# A B C D E F G H I J K L M N O P Q R S T U V W X Y Z