Song name
# A B C D E F G H I J K L M N O P Q R S T U V W X Y Z

Blood Red Shoes - Adhd tab

This song was quite difficult to figure out as Laura-Mary always plays with a lot of 
you want to have the same effect you have to use a digital delay....she uses a Boss DD-3/DD-6...
However...as always I'm not so sure about the notes...so tell me if there's something wrong!!!

Intro
e|----|
B|----|
G|----|
D|----|It is the note that you can listen at the beginning with the drums...
A|----|it is before the beginning of verse A (it's at about the 6th
E|-15-|second on the album version)...it has to last for some time...

Verse A:
e|--------------------------------------------------|
B|--------------------------------------------------|
G|--------------------------------------------------|
D|------------------------------------------------14|
A|0-0--10-10--0-0--10-10--0-0--13-13---0-0--13-13-14|
E|0-0--10-10--0-0--10-10--0-0--13-13---0-0--13-13---|

Verse B
e|-----------------------------------------------|
B|-----------------------------------------------|
G|-----------------------------------------------|
D|-----------------------------------------------|
A|0-0--10-10--0-0--10-10--0-0--13-13---0-0--13-13|
E|0-0--10-10--0-0--10-10--0-0--13-13---0-0--13-13|

Pre-Chorus
e|-----------|
B|-----------|
G|-----------|
D|-----------|
A|12-12-12-12|
E|12-12-12-12|

Chorus
e|-------------------------------|
B|-------------------------------|
G|-------------------------------|
D|-------------------------------|
A|0-0-14--0-0-14--0-0-14--0-14-13|
E|0-0-14--0-0-14--0-0-14--0-14-13|

Pre-Verse
e|-------------------------------|
B|-------------------------------|
G|-------------------------------|
D|-------------------------------|
A|12--12--12--12--12--12--12b(13)|
E|12--12--12--12-----------------|

Solo
e|---------------|
B|---------------|
G|---------------|
D|---------------|
A|0---13b(14)--13|
E|0---13b(14)--13|

Ending
e|-------------------------------------------|
B|-------------------------------------------|
G|-------------------------------------------|
D|-------------------------------------------|
A|0-0-14--0-0-14--0-0-14-13b(14)-----------13|
E|0-0-14--0-0-14--0-0-14-13----------------13|


This Is The Order:
Intro            x1
Verse:
	Verse A  x1
	Verse B  x1
	Verse A  x1
	Verse B  x3
Pre-Chorus       x1
Chorus           x4
Pre-Verse        x1
Verse:
	Verse A  x1
	Verse B  x5
Pre-chorus       x1
Chorus           x7
Solo             x4
Chorus           x11
Ending           x1
Tap to rate this tab
# A B C D E F G H I J K L M N O P Q R S T U V W X Y Z