Song name
# A B C D E F G H I J K L M N O P Q R S T U V W X Y Z

Blood Red Shoes - Adhd tab

------------------------------------------------------------------
                     Blood Red Shoes - ADHD
------------------------------------------------------------------

Tuning: EADGBe

  (0:12)
e|---------------------------------------------------------------|
B|---------------------------------------------------------------|
G|---------------------------------------------------------------|
D|-----------------------------------------------------------13--|
A|--------10-10----------10-10----------13-13----------13-13-----|
E|--0-0------------0-0------------0-0------------0-0-------------|

e|---------------------------------------------------------------|
B|---------------------------------------------------------------|
G|---------------------------------------------------------------|
D|---------------------------------------------------------------|
A|--------10-10----------10-10----------13-13----------13-13-----|
E|--0-0------------0-0------------0-0------------0-0-------------|

  (0:24)
e|---------------------------------------------------------------|
B|---------------------------------------------------------------|
G|---------------------------------------------------------------|
D|-----------------------------------------------------------13--|
A|--------10-10----------10-10----------13-13----------13-13-----|
E|--0-0------------0-0------------0-0------------0-0-------------|

e|---------------------------------------------------------------|
B|---------------------------------------------------------------|
G|---------------------------------------------------------------|
D|---------------------------------------------------------------|
A|--------10-10----------10-10----------13-13----------13-13-----|
E|--0-0------------0-0------------0-0------------0-0-------------|

e|---------------------------------------------------------------|
B|---------------------------------------------------------------|
G|---------------------------------------------------------------|
D|---------------------------------------------------------------|
A|--------10-10----------10-10----------13-13----------13-13-----|
E|--0-0------------0-0------------0-0------------0-0-------------|

e|---------------------------------------------------------------|
B|---------------------------------------------------------------|
G|---------------------------------------------------------------|
D|---------------------------------------------------------------|
A|--------10-10----------10-10----------13-13----------13-13-----|
E|--0-0------------0-0------------0-0------------0-0-------------|

  (0:48)
e|-------------------------|
B|-------------------------|
G|-------------------------|
D|-------------------------|
A|-------------------------|
E|---6-----6-----6-----6---|

  (0:50)
e|-------------------------------------------------------|
B|-------------------------------------------------------|
G|-------------------------------------------------------|
D|-------------------------------------------------------| x4
A|-------------------------------------------------------|
E|---0-0-0-0-7-----0-0-0-0-7-----0-0-0-0-7-----0-0-7-6---|

  (1:02)
e|-------------------------|
B|-------------------------|
G|-------------------------|
D|-------------------------|
A|-------------------------|
E|---6-----6-----6-----6---|

  (1:05)
e|---------------------------------------------------------------|
B|---------------------------------------------------------------|
G|---------------------------------------------------------------|
D|-----------------------------------------------------------13--|
A|--------10-10----------10-10----------13-13----------13-13-----|
E|--0-0------------0-0------------0-0------------0-0-------------|

e|---------------------------------------------------------------|
B|---------------------------------------------------------------|
G|---------------------------------------------------------------|
D|---------------------------------------------------------------|
A|--------10-10----------10-10----------13-13----------13-13-----|
E|--0-0------------0-0------------0-0------------0-0-------------|

  (1:18)
e|---------------------------------------------------------------|
B|---------------------------------------------------------------|
G|---------------------------------------------------------------|
D|---------------------------------------------------------------| x4
A|--------10-10----------10-10----------13-13----------13-13-----|
E|--0-0------------0-0------------0-0------------0-0-------------|

  (1:42)
e|-------------------------|
B|-------------------------|
G|-------------------------|
D|-------------------------|
A|-------------------------|
E|---6-----6-----6-----6---|

  (1:44)
e|-------------------------------------------------------|
B|-------------------------------------------------------|
G|-------------------------------------------------------|
D|-------------------------------------------------------| x7
A|-------------------------------------------------------|
E|---0-0-0-0-7-----0-0-0-0-7-----0-0-0-0-7-----0-0-7-6---|

  (2:08)
e|-----------------------------------|
B|-----------------------------------|
G|-----------------------------------|
D|-----------------------------------| x4
A|---7~-------------------7br----7---|
E|---0~-------------------0------7---|

  (2:32)
e|-------------------------------------------------------|
B|-------------------------------------------------------|
G|-------------------------------------------------------|
D|-------------------------------------------------------| x11
A|-------------------------------------------------------|
E|---0-0-0-0-7-----0-0-0-0-7-----0-0-0-0-7-----0-0-7-6---|

e|-------------------------------------------------------|
B|-------------------------------------------------------|
G|-------------------------------------------------------|
D|---------------------------------------------2~--------|
A|---------------------------------------------2~--------|
E|---0-0-0-0-7-----0-0-0-0-7-----0-0-0-0-7-----0~--------|



************************************

| /   slide up
| \   slide down
| h   hammer-on
| p   pull-off
| ~   vibrato
| +   harmonic
| x   Mute note
| b   Bend
| pb  Pre-bend
| br  Bend release
| pbr Pre-bend release
| brb Bend release bend

************************************
Tap to rate this tab
 
# A B C D E F G H I J K L M N O P Q R S T U V W X Y Z