Song name
# A B C D E F G H I J K L M N O P Q R S T U V W X Y Z

Blood Red Shoes - Keeping It Close tab

------------------------------------------------------------------
                Blood Red Shoes - Keeping It Close
------------------------------------------------------------------

Tuning: EADGBe

e|-----------------------------------0------------------------|
B|-----------------------------------0------------------------|
G|--6--6------6-6---------------------------------------------|
D|--6--6------6-6-6---6-6-7---7-7-2---------------------------|
A|--4--4------4-4-6---6-6-7---7-7-2--------2--4---4-----------|
E|----------------4---4-4-5---5-5-0------------------4--2--4--|

e|-----------------------------------0------------------------|
B|-----------------------------------0------------------------|
G|-----6------6-6---------------------------------------------|
D|-----6------6-6-6---6-6-7---7-7-2---------------------------|
A|-----4------4-4-6---6-6-7---7-7-2--------2--4---4-----------|
E|----------------4---4-4-5---5-5-0------------------4--2--4--|

e|-----------------------------------0------------------------|
B|-----------------------------------0------------------------|
G|-----6------6-6---------------------------------------------|
D|-----6------6-6-6---6-6-7---7-7-2---------------------------|
A|-----4------4-4-6---6-6-7---7-7-2--------2--4---4-----------|
E|-0-0------------4---4-4-5---5-5-0------------------4--2--4--|
PM . .

e|-----------------------------------0----------------------------------|
B|-----------------------------------0----------------------------------|
G|-----6------6-6-------------------------------------------------------|
D|-----6------6-6-6---6-6-7---7-7-2--------------------------------2~---|
A|-----4------4-4-6---6-6-7---7-7-2--------2-4---4---2---2---------2~---|
E|-0-0------------4---4-4-5---5-5-0----------------4-------2-4---4-0~---|
PM . .
Tap to rate this tab
# A B C D E F G H I J K L M N O P Q R S T U V W X Y Z