Song name
# A B C D E F G H I J K L M N O P Q R S T U V W X Y Z

Blood Red Shoes - Colours Fade tab

This song was not so easy to tab...I had some problems with the intro and the verse...as
really couldn't understand the notes Laura-Mary plays... However here it is....hope
right...You have to play it with a lot of distortion! And...I'm sorry for my bad 
also because I can't create an easy-to-read tab!!

Intro
e|---------------------------------------------------------------|
B|---------------------------------------------------------------|
G|---------------------------------------------------------------|
D|---------------------------------------------------------------|
A|7-7-7-7-7-7-7-7-8-8-8-8-8-8-8-7--------------------------------|
E|--------------------------------8-8-8-8-8-8-8-4-7-7-7-7-7-7-7-4|

Verse
e|---------------------------------------------------------------|
B|---------------------------------------------------------------|
G|---------------------------------------------------------------|
D|---------------------------------------------------------------|
A|7-7-7-7-7-7-7-7-7-7-7-7-7-7-7-7--------------------------------|
E|--------------------------------8-8-8-8-8-8-8-4-7-7-7-7-7-7-7-4|

Actually I'm not sure about the last 4 in the intro and in the verse
...I think it can also be a 6....


Verse B (It's played before the pre-chorus appear for the second time!)
e|---------------------------------------------------------------------|
B|---------------------------------------------------------------------|
G|---------------------------------------------------------------------|
D|---------------------------------------------------------------------|
A|7-7-7-7-7-7-7-7-7-7-7-7-7-7-7-7-------------------------------------7|
E|--------------------------------8-8-8-8-8-8-8-4-7-7-7-7-7b(8)-7b(8)--|

Pre-Chorus
e|---------------------------------------------------------------|
B|---------------------------------------------------------------|
G|---------------------------------------------------------------|
D|------------------------------------------------7-7-7-7-7-7-7-7|
A|7-7-7-7-7-7-7-7-7-7-7-7-7-7-7-7-8-8-8-8-8-8-8-8----------------|
E|---------------------------------------------------------------|

Chorus
e|---------------------------------------------------------------|
B|---------------------------------------------------------------|
G|---------------------------------------------------------------|
D|5-5-5-5-5-5-5-5-7-7-7-7-7-7-7-7-2-2-2-2-2-2-2-2-2-2-2-2-2-2-2-2|
A|5-5-5-5-5-5-5-5-7-7-7-7-7-7-7-7-2-2-2-2-2-2-2-2-2-2-2-2-2-2-2-2|
E|3-3-3-3-3-3-3-3-5-5-5-5-5-5-5-5-0-0-0-0-0-0-0-0-0-0-0-0-0-0-0-0|

Break
e|-----------------------------------------------------------------------|
B|-----------------------------------------------------------------------|
G|-----------------------------------------------------------------------|
D|-----------------------------------------------------------------------|
A|-----------------------------------------------------------------------|
E|5-5-5-5-5-5-5-5/17-17-17-17\12-12-12-12-13-13-13-13-13-13-13-12-8-8-8-8|

e|------------|
B|------------|
G|------------|
D|------------|
A|------------|
E|-11-11-11-11|

...You can also play it like that to intensificate the sound (it's better to play it
that if you don't have a good distortion!)

e|------------------------------------------------------------------------|
B|------------------------------------------------------------------------|
G|------------------------------------------------------------------------|
D|------------------------------------------------------------------------|
A|7-7-7-7-7-7-7-7/19-19-19-19\14-14-14-14-11-11-11-11-11-11-11-14-10-10-10|
E|5-5-5-5-5-5-5-5/17-17-17-17\12-12-12-12-13-13-13-13-13-13-13-12-8--8--8-|

e|--------------|
B|--------------|
G|--------------|
D|--------------|
A|10-13-13-13-13|
E|8--11-11-11-11|

To intensificate the sound in the last chorus, before the ending, you can also play
chorus part like that:
e|---------------------------------------------------------------|
B|---------------------------------------------------------------|
G|---------------------------------------------------------------|
D|3-3-3-3-3-3-3-3-5-5-5-5-5-5-5-5-0-0-0-0-0-0-0-0-0-0-0-0-0-0-0-0|
A|3-3-3-3-3-3-3-3-5-5-5-5-5-5-5-5-0-0-0-0-0-0-0-0-0-0-0-0-0-0-0-0|
E|3-3-3-3-3-3-3-3-5-5-5-5-5-5-5-5-0-0-0-0-0-0-0-0-0-0-0-0-0-0-0-0|

Ending A
e|---------------------------------------------------------------|
B|---------------------------------------------------------------|
G|---------------------------------------------------------------|
D|---------------------------------------------------------------|
A|---------------------------------------------------------------|
E|3-3-3-3-3-3-3-3-5-5-5-5-5-5-5-5-0-0-0-0-0-0-0-0-0-0-0-0-0-0-0-0|

Ending B
e|--------------|-------------------|--------------|--------|
B|--------------|-------------------|--------------|--------|
G|--------------|-------------------|--------------|--------|
D|5-9--7-11b(12)|11\5-5-9--7-11b(12)|11\5-5-9--7-7\|5--7----|
A|--------------|-------------------|--------------|------7\|
E|--------------|-------------------|--------------|--------|

e|--------------------------|
B|--------------------------|
G|--------------------------|
D|-11\5-5--5-9--7/11b(12)---|
A|-------------------------7|
E|--------------------------|

This Is The Order:
Intro x4
Verse x4
Pre-Chorus x2
Chorus x3
Verse x3
Verse B x1
Pre-Chorus x1
Chorus x4
Bridge x4
Chorus x10
Ending A x3
Ending B x1
Tap to rate this tab
 
# A B C D E F G H I J K L M N O P Q R S T U V W X Y Z