Song name
# A B C D E F G H I J K L M N O P Q R S T U V W X Y Z

Blood Red Shoes - Colours Fade tab

----------------------------------------------------------------------
                    Blood Red Shoes - Colours Fade
----------------------------------------------------------------------

Tuning: EADGBe

  (0:00)
e|-------------------------------------------------------------------|
B|-------------------------------------------------------------------|
G|-------------------------------------------------------------------|
D|-------------------------------------------------------------------| 4x
A|--7-7-7-7-7-7-7-7-8-8-8-8-8-8-8-8-3-3-3-3-3-3-3-3-1-1-1-1-1-1-1-1--|
E|--0-0-0-0-0-0-0-0-0-0-0-0-0-0-0-0-0-0-0-0-0-0-0-0-0-0-0-0-0-0-0-0--|

  (0:32)
e|-------------------------------------------------------------------|
B|-------------------------------------------------------------------|
G|-------------------------------------------------------------------|
D|-------------------------------------------------------------------| 4x
A|--7-7-7-7-7-7-7-7-7-7-7-7-7-7-7-7-3-3-3-3-3-3-3-3-1-1-1-1-1-1-1-1--|
E|--0-0-0-0-0-0-0-0-0-0-0-0-0-0-0-0-0-0-0-0-0-0-0-0-0-0-0-0-0-0-0-0--|

  (1:04)
e|-------------------------------------------------------------------|
B|-------------------------------------------------------------------|
G|-------------------------------------------------------------------|
D|-------------------------------------------------------------------| 2x
A|--2-2-2-2-2-2-2-2-2-2-2-2-2-2-2-2-3-3-3-3-3-3-3-3-7-7-7-7-7-7-7-7--|
E|--0-0-0-0-0-0-0-0-0-0-0-0-0-0-0-0-1-1-1-1-1-1-1-1-5-5-5-5-5-5-5-5--|

  (1:20)
e|-------------------------------------------------------------------|
B|-------------------------------------------------------------------|
G|-------------------------------------------------------------------|
D|--5-5-5-5-5-5-5-5-7-7-7-7-7-7-7-7-2-2-2-2-2-2-2-2-2-2-2-2-2-2-2-2--| 3x
A|--5-5-5-5-5-5-5-5-7-7-7-7-7-7-7-7-2-2-2-2-2-2-2-2-2-2-2-2-2-2-2-2--|
E|--3-3-3-3-3-3-3-3-5-5-5-5-5-5-5-5-0-0-0-0-0-0-0-0-0-0-0-0-0-0-0-0--|

  (1:44)
e|-------------------------------------------------------------------|
B|-------------------------------------------------------------------|
G|-------------------------------------------------------------------|
D|-------------------------------------------------------------------| 4x
A|--7-7-7-7-7-7-7-7-7-7-7-7-7-7-7-7-3-3-3-3-3-3-3-3-1-1-1-1-1-1-1-1--|
E|--0-0-0-0-0-0-0-0-0-0-0-0-0-0-0-0-0-0-0-0-0-0-0-0-0-0-0-0-0-0-0-0--|

  (2:17)
e|-------------------------------------------------------------------|
B|-------------------------------------------------------------------|
G|-------------------------------------------------------------------|
D|-------------------------------------------------------------------| 2x
A|--2-2-2-2-2-2-2-2-2-2-2-2-2-2-2-2-3-3-3-3-3-3-3-3-7-7-7-7-7-7-7-7--|
E|--0-0-0-0-0-0-0-0-0-0-0-0-0-0-0-0-1-1-1-1-1-1-1-1-5-5-5-5-5-5-5-5--|

  (2:33)
e|-------------------------------------------------------------------|
B|-------------------------------------------------------------------|
G|-------------------------------------------------------------------|
D|--5-5-5-5-5-5-5-5-7-7-7-7-7-7-7-7-2-2-2-2-2-2-2-2-2-2-2-2-2-2-2-2--| 4x
A|--5-5-5-5-5-5-5-5-7-7-7-7-7-7-7-7-2-2-2-2-2-2-2-2-2-2-2-2-2-2-2-2--|
E|--3-3-3-3-3-3-3-3-5-5-5-5-5-5-5-5-0-0-0-0-0-0-0-0-0-0-0-0-0-0-0-0--|

  (3:05)
e|-----------------------------------------------------------------------------|
B|-----------------------------------------------------------------------------|
G|-----------------14-14-14-14-9-9-9-9-10-10-10-10-10-10-10-10-5-5-5-5-8-8-8-8-|
D|-----------------------------------------------------------------------------| 4x
A|-7-7-7-7-7-7-7-7-12-12-12-12-7-7-7-7-8--8--8--8--8--8--8--8--3-3-3-3-6-6-6-6-|
E|-0-0-0-0-0-0-0-0-------------------------------------------------------------|

  (3:37)
e|-------------------------------------------------------------------|
B|-------------------------------------------------------------------|
G|-------------------------------------------------------------------|
D|--5-5-5-5-5-5-5-5-7-7-7-7-7-7-7-7-2-2-2-2-2-2-2-2-2-2-2-2-2-2-2-2--| 10x
A|--5-5-5-5-5-5-5-5-7-7-7-7-7-7-7-7-2-2-2-2-2-2-2-2-2-2-2-2-2-2-2-2--|
E|--3-3-3-3-3-3-3-3-5-5-5-5-5-5-5-5-0-0-0-0-0-0-0-0-0-0-0-0-0-0-0-0--|

  (4:57)
e|-------------------------------------------------------------------|
B|-------------------------------------------------------------------|
G|-------------------------------------------------------------------|
D|--5---5-----5-5-5-7---7-----7-7-7-2---2-----2-2-2-2-2-2-2-2-2-2-2--| 3x
A|--5---5-----5-5-5-7---7-----7-7-7-2---2-----2-2-2-2-2-2-2-2-2-2-2--|
E|--3---3-----3-3-3-5---5-----5-5-5-0---0-----0-0-0-0-0-0-0-0-0-0-0--|

  (5:21)
e|-------------------------------------------------------------------|
B|-------------------------------------------------------------------|
G|----------4--------------6br---------------------------------------|
D|-------------------------------------------------------------------| 2x
A|------5---------------7----------\2~-------------------------------|
E|--3---------------5--------------\0~-------------------------------|

e|-------------------------------------------------------------------|
B|-------------------------------------------------------------------|
G|----------4--------------------------------------------------------|
D|-------------------------------------------------------------------|
A|------5---------------7----------\2~-------------------------------|
E|--3---------------5--------------\0~-------------------------------|

e|-------------------------------------------------------------------|
B|-------------------------------------------------------------------|
G|-------------------------------------------------------------------|
D|-------------------------------------------------------------------|
A|--5---------------7--------------\2~-------------------------------|
E|--3---------------5--------------\0~-------------------------------|

e|-------------------------------------------------------------------|
B|-------------------------------------------------------------------|
G|------4---------------6--------------------------------------------|
D|-------------------------------------------------------------------|
A|--5---------------7--------------\2~-------------------------------|
E|--3---------------5--------------\0~-------------------------------|



************************************

| /   slide up
| \   slide down
| h   hammer-on
| p   pull-off
| ~   vibrato
| +   harmonic
| x   Mute note
| b   Bend
| pb  Pre-bend
| br  Bend release
| pbr Pre-bend release
| brb Bend release bend

************************************
Tap to rate this tab
# A B C D E F G H I J K L M N O P Q R S T U V W X Y Z