Song name
# A B C D E F G H I J K L M N O P Q R S T U V W X Y Z

Blood Red Shoes - One More Empty Chair tab

--------------------------------------------------------------------
               Blood Red Shoes - One More Empty Chair
--------------------------------------------------------------------

Tuning: EADGBe

e|-----------------------------------------------------------------|
B|-----------------------------------------------------------------|
G|-----------------------------------------------------------------|
D|------5---------------9-------7-------5---------------9-------7--|
A|----5---------------9-------7-------5---------------9-------7----|
E|--3--------------/7-----5---------3-----0--------/7-----5--------|

e|-----------------------------------------------------------------|
B|-----------------------------------------------------------------|
G|-----------------------------------------------------------------|
D|------5---------------9-------7---------12-----------------------|
A|----5---------------9-------7--------12--------------------------|
E|--3-----0--------/7-----5--------/10-------7~--------------------|



************************************

| /   slide up
| \   slide down
| h   hammer-on
| p   pull-off
| ~   vibrato
| +   harmonic
| x   Mute note
| b   Bend
| pb  Pre-bend
| br  Bend release
| pbr Pre-bend release
| brb Bend release bend

************************************
Tap to rate this tab
 
# A B C D E F G H I J K L M N O P Q R S T U V W X Y Z