Song name
# A B C D E F G H I J K L M N O P Q R S T U V W X Y Z

Blood Red Shoes - When We Wake tab

--------------------------------------------------------------------------
                      Blood Red Shoes - When We Wake
--------------------------------------------------------------------------

Tuning: EADGBe

  (0:13) Clean
e|-----------------------------------------------------------------------|
B|-----------------------------------------------------------------------|
G|-----------------------------------------------------------------------|
D|-----------------------------------------------------------------------| 15x
A|-----------------------------------------------------------------------|
E|--1-1-1-1-1-1-1-1-6-6-6-6-6-6-6-6-10-10-10-10-5-5-5-5-5-5-5-5-5-5-5-5--|

  (2:09) Distorted
e|-----------------------------------------------------------------------|
B|-----------------------------------------------------------------------|
G|-----------------------------------------------------------------------|
D|-----------------------------------------------------------------------| 8x
A|-----------------------------------------------------------------------|
E|--1-1-1-1-1-1-1-1-6-6-6-6-6-6-6-6-10-10-10-10-5-5-5-5-5-5-5-5-5-5-5-5--|

  (3:08) Distorted
e|-----------------------------------------------------------------------|
B|-----------------------------------------------------------------------|
G|-----------------------------------------------------------------------|
D|--3-3-3-3-3-3-3-3-8-8-8-8-8-8-8-8-12-12-12-12-7-7-7-7-7-7-7-7-7-7-7-7--| 4x
A|--3-3-3-3-3-3-3-3-8-8-8-8-8-8-8-8-12-12-12-12-7-7-7-7-7-7-7-7-7-7-7-7--|
E|--1-1-1-1-1-1-1-1-6-6-6-6-6-6-6-6-10-10-10-10-5-5-5-5-5-5-5-5-5-5-5-5--|

  (3:37) Distorted
e|-----------------------------------------------------------------------|
B|-----------------------------------------------------------------------|
G|-----------------------------------------------------------------------|
D|-----------------------------------------------------------------------|
A|-----------------------------------------------------------------------|
E|--10-10-10-10-5-5-5-5-5-5-5-5-3-3-3-3-1-1-1-1-5-5-5-5-5-5-5-5-5-5-5-5--|

e|-----------------------------------------------------------------------|
B|-----------------------------------------------------------------------|
G|-----------------------------------------------------------------------|
D|-----------------------------------------------------------------------|
A|-----------------------------------------------------------------------|
E|--10-10-10-10-5-5-5-5-5-5-5-5-3-3-3-3-1-1-1-1-5-5-5-5-5-5-5-5-5-5-5-5--|

e|-----------------------------------------------------------------------|
B|-----------------------------------------------------------------------|
G|-----------------------------------------------------------------------|
D|--------------------------------------5-5-5-5-7-7-7-7-7-7-7-7-7-7-7-7--|
A|--------------8-8-8-8-8-8-8-8------------------------------------------|
E|--10-10-10-10-----------------5-5-5-5----------------------------------|

e|-----------------------------------------------------------------------|
B|-----------------------------------------------------------------------|
G|-----------------------------------------------------------------------|
D|-----------------------------------------------------------------------|
A|-----------------------------------------------------------------------|
E|--10-10-10-10-5-5-5-5-5-5-5-5-3-3-3-3-1-1-1-1-5-5-5-5-5-5-5-5-5-5-5-5--|

  (4:05) Clean
e|-----------------------------------------------------------------------|
B|-----------------------------------------------------------------------|
G|-----------------------------------------------------------------------|
D|-----------------------------------------------------------------------| 2x
A|-----------------------------------------------------------------------|
E|--1-1-1-1-1-1-1-1-6-6-6-6-6-6-6-6-10-10-10-10-5-5-5-5-5-5-5-5-5-5-5-5--|

  (4:21)
e|------|
B|------|
G|------|
D|------|
A|------|
E|--1~--|
Tap to rate this tab
# A B C D E F G H I J K L M N O P Q R S T U V W X Y Z