Song name
# A B C D E F G H I J K L M N O P Q R S T U V W X Y Z

Blood Red Shoes - Heartsink tab

-------------------------------------------------------------------------
                       Blood Red Shoes - Heartsink
-------------------------------------------------------------------------

Tuning: EADGBe

  (0:13)
e|-----------------------------------------------------------------------|
B|-----------------------------------------------------------------------|
G|-----------------------------------------------------------------------|
D|-----------------------------------------------------------------------| 2x
A|-----------------------------------------------------------------------|
E|---15\-3---3---3--/7---7--\5---5---0---0---0-3-3-3---0---0---0-2-2-2---|

e|--------------------------|
B|--------------------------|
G|--------------------------|
D|--------------------------|
A|--------------------------|
E|---3~-----------1-----0---|

  (0:30)

e|-----------------------------------------------------------------------|
B|--8-8-8-8-8-8-8-8-10-10-10-10-8-8-8-8-0-0-0-0-0-0-0-0-0-0-0-0-0-0-0-0--|
G|--9-9-9-9-9-9-9-9-9--9--9--9--9-9-9-9-9-9-9-9-9-9-9-9-9-9-9-9-9-9-9-9--|
D|-----------------------------------------------------------------------| 2x
A|-----------------------------------------------------------------------|
E|-----------------------------------------------------------------------|

e|-----------------------------------------------------------------------|
B|--8-8-8-8-8-8-8-8--6-6-6-6--5-5-5-5--0-0-0-0-0-0-0-0--0-0-0-0-0-0-0-0--|
G|--9-9-9-9-9-9-9-9--9-9-9-9--9-9-9-9--9-9-9-9-9-9-9-9--9-9-9-9-9-9-9-9--|
D|-----------------------------------------------------------------------| 2x
A|-----------------------------------------------------------------------|
E|-----------------------------------------------------------------------|

  (0:57)
e|-----------------------------------------------------------------------|
B|-----------------------------------------------------------------------|
G|-----------------------------------------------------------------------|
D|-----------------------------------------------------------------------| 2x
A|-----------------------------------------------------------------------|
E|---15\-3---3---3--/7---7--\5---5---0---0---0-3-3-3---0---0---0-2-2-2---|

e|-----------------------------------------------------------------------|
B|-----------------------------------------------------------------------|
G|-----------------------------------------------------------------------|
D|-----------------------------------------------------------------------|
A|-----------------------------------------------------------------------|
E|--15\-3--3--3-/17--17\15--15\12--12--12-15-15-15--12--12--12-10-10-10--|

e|-----------------------------------------------------------------------|
B|-----------------------------------------------------------------------|
G|-----------------------------------------------------------------------|
D|-----------------------------------------------------------------------|
A|-----------------------------------------------------------------------|
E|---15\-3---3---3--/7---7--\5---5---0---0---0-3-3-3---0---0---0-2-2-2---|

e|--------------------------|
B|--------------------------|
G|--------------------------|
D|--------------------------|
A|--------------------------|
E|---3~-----------1-----0---|

  (1:27)
e|-----------------------------------------------------------------------|
B|--8-8-8-8-8-8-8-8-10-10-10-10-8-8-8-8-0-0-0-0-0-0-0-0-0-0-0-0-0-0-0-0--|
G|--9-9-9-9-9-9-9-9-9--9--9--9--9-9-9-9-9-9-9-9-9-9-9-9-9-9-9-9-9-9-9-9--|
D|-----------------------------------------------------------------------| 2x
A|-----------------------------------------------------------------------|
E|-----------------------------------------------------------------------|

e|-----------------------------------------------------------------------|
B|--8-8-8-8-8-8-8-8--6-6-6-6--5-5-5-5--0-0-0-0-0-0-0-0--0-0-0-0-0-0-0-0--|
G|--9-9-9-9-9-9-9-9--9-9-9-9--9-9-9-9--9-9-9-9-9-9-9-9--9-9-9-9-9-9-9-9--|
D|-----------------------------------------------------------------------| 2x
A|-----------------------------------------------------------------------|
E|-----------------------------------------------------------------------|

  (1:54)
e|-----------------------------------------------------------------------|
B|-----------------------------------------------------------------------|
G|-----------------------------------------------------------------------|
D|-----------------------------------------------------------------------| 2x
A|-----------------------------------------------------------------------|
E|---15\-3---3---3--/7---7--\5---5---0---0---0-3-3-3---0---0---0-2-2-2---|

e|-----------------------------------------------------------------------|
B|-----------------------------------------------------------------------|
G|-----------------------------------------------------------------------|
D|-----------------------------------------------------------------------|
A|-----------------------------------------------------------------------|
E|--15\-3--3--3-/17--17\15--15\12--12--12-15-15-15--12--12--12-10-10-10--|

e|-----------------------------------------------------------------------|
B|-----------------------------------------------------------------------|
G|-----------------------------------------------------------------------|
D|-----------------------------------------------------------------------|
A|-----------------------------------------------------------------------|
E|---15\-3---3---3--/7---7--\5---5---0---0---0-3-3-3---0---0---0-2-2-2---|

  (2:21)
e|-----------------------------------------------------------------------|
B|-----------------------------------------------------------------------|
G|-----------------------------------------------------------------------|
D|---5~--------------x-x-9-------x-x-7-------x-x-2~----------------------| 2x
A|---5~--------------x-x-9-------x-x-7-------x-x-2~----------------------|
E|---3~--------------x-x-7-------x-x-5-------x-x-0~----------------------|

  (2:34)
e|-----------------------------------------------------------------------|
B|-----------------------------------------------------------------------|
G|-----------------------------------------------------------------------|
D|-----------------------------------------------------------------------| 2x
A|-----------------------------------------------------------------------|
E|----3-3-3-3-3-3-3-3-6-6-6-6-1-1-1-1-0-0-0-0-0-0-0-0-0-0-0-0-0-0-0-0----|

e|-----------------------------------------------------------------------|
B|-----------------------------------------------------------------------|
G|-----------------------------------------------------------------------|
D|----5-5-5-5-5-5-5-5-8-8-8-8-3-3-3-3-2-2-2-2-2-2-2-2-2-2-2-2-2-2-2-2----| 2x
A|-----------------------------------------------------------------------|
E|-----------------------------------------------------------------------|

e|--------------------------|
B|--------------------------|
G|--------------------------|
D|----2----2----------------|
A|----2----2----------------|
E|----0----0----------------|

  (3:04)
e|-----------------------------------------------------------------------|
B|-----------------------------------------------------------------------|
G|-----------------------------------------------------------------------|
D|-----------------------------------------------------------------------| 2x
A|-----------------------------------------------------------------------|
E|---15\-3---3---3--/7---7--\5---5---0---0---0-3-3-3---0---0---0-2-2-2---|

e|-----------------------------------------------------------------------|
B|-----------------------------------------------------------------------|
G|-----------------------------------------------------------------------|
D|-----------------------------------------------------------------------|
A|-----------------------------------------------------------------------|
E|--15\-3--3--3-/17--17\15--15\12--12--12-15-15-15--12--12--12-10-10-10--|

e|-----------------------------------------------------------------------|
B|-----------------------------------------------------------------------|
G|-----------------------------------------------------------------------|
D|-----------------------------------------------------------------------|
A|-----------------------------------------------------------------------|
E|---15\-3---3---3--/7---7--\5---5---0---0---0-3-3-3---0---0---0-2-2-2---|

e|---------------------------------|
B|---------------------------------|
G|---------------------------------|
D|---------------------------------|
A|-----------------------------2---|
E|---3~-----------1~-----------0---|



************************************

| /   slide up
| \   slide down
| h   hammer-on
| p   pull-off
| ~   vibrato
| +   harmonic
| x   Mute note
| b   Bend
| pb  Pre-bend
| br  Bend release
| pbr Pre-bend release
| brb Bend release bend

************************************
Tap to rate this tab
 
# A B C D E F G H I J K L M N O P Q R S T U V W X Y Z