Song name
# A B C D E F G H I J K L M N O P Q R S T U V W X Y Z

Blood Red Shoes - It Is Happening Again tab

-----------------------------------------------------
       Blood Red Shoes - It Is Happening Again
-----------------------------------------------------


Tuning: EADGBe


  (0:00) Intro (play 4x)
e|---------------------------------------------------|
B|---------------------------------------------------|
G|---------------------------------------------------|
D|--5--5--5--5--5--5--5--5--5--5--5--5--5--4--4--4---|
A|--5--5--5--5--5--5--5--5--5--5--5--5--5--4--4--4---|
E|--3--3--3--3--3--3--3--3--3--3--3--3--3--2--2--2---|


  (0:13) Verse (play 6x)
e|---------------------------------------------------|
B|---------------------------------------------------|
G|--7--7-----7--7-----7--7-----7--7------------------|
D|--7--7-----7--7-----6--6-----6--6------------------|
A|-----------------------------------5--7--7---------|
E|--------------------------------------------5--5---|

e|---------------------------------------------------|
B|---------------------------------------------------|
G|---------------------------------------------------|
D|---------------------------------------------------|
A|---------------------------------------------------|
E|--7--7--7--7--7--5----7-7-7--7--7--7--7--5--5--5---|


  (0:52) Pre-chorus
e|---------------------------------------------------|
B|---------------------------------------------------|
G|---------------------------------------------------|
D|---------------------------------------------------|
A|---------------------------------------------------|
E|--2--2--2--2--2--2--2--2--3--3--3--3--3--3--3--3---|


  (0:56) Chorus (play 4x)
e|---------------------------------------------------|
B|---------------------------------------------------|
G|---------------------------------------------------|
D|---------------------------------------------------|
A|---------------------------------------------------|
E|--10-10-10-10-10-10-10-10-10-10-10-10-10-10-10-10--|

e|---------------------------------------------------|
B|---------------------------------------------------|
G|---------------------------------------------------|
D|---------------------------------------------------|
A|---------------------------------------------------|
E|--2--2--2--2--2--2--2--2--3--3--3--3--3--3--3--3---|


  (1:22) Bridge (play 2x)
e|---------------------------------------------------|
B|---------------------------------------------------|
G|--7----x--7-7-7----x--7-7-7----x--7-7-7----x-12-12-|
D|-------x-----------x-----------x-----------x-------|
A|--5----x--5-5-5----x-----------x-----------x-10-10-|
E|-------x-----------x--6-6-6----x--6-6-6----x-------|

e|---------------------------------------------------|
B|---------------------------------------------------|
G|--12---x-12-12-12--x--6-6-6----x--6-6-6----x--3-3--|
D|-------x-----------x-----------x-----------x-------|
A|--10---x-10-10-10--x--4-4-4----x--4-4-4----x-------|
E|-------x-----------x-----------x-----------x--3-3--|

e|---------------------------------------------------|
B|---------------------------------------------------|
G|--3----x--3-3-3----x--3-3-3----x--3-3-3----x--7-7--|
D|-------x-----------x-----------x-----------x-------|
A|-------x-----------x-----------x-----------x-------|
E|--3----x--3-3-3----x--2-2-2----x--2-2-2----x--6-6--|

e|---------------------------------------------------|
B|---------------------------------------------------|
G|--7----x--7-7-7----x--6-6-6----x--6-6-6----x--7-7--|
D|-------x-----------x-----------x-----------x-------|
A|-------x-----------x-----------x-----------x--5-5--|
E|--6----x--6-6-6----x--5-5-5----x--5-5-5----x-------|


  (1:49) Verse (play 5x)
e|---------------------------------------------------|
B|---------------------------------------------------|
G|--7--7-----7--7-----7--7-----7--7------------------|
D|--7--7-----7--7-----6--6-----6--6------------------|
A|-----------------------------------5--7--7---------|
E|--------------------------------------------5--5---|

e|---------------------------------------------------|
B|---------------------------------------------------|
G|---------------------------------------------------|
D|---------------------------------------------------|
A|---------------------------------------------------|
E|--7--7--7--7--7--5----7-7-7--7--7--7--7--5--5--5---|


  (2:22) Pre-chorus
e|---------------------------------------------------|
B|---------------------------------------------------|
G|---------------------------------------------------|
D|---------------------------------------------------|
A|---------------------------------------------------|
E|--2--2--2--2--2--2--2--2--3--3--3--3--3--3--3--3---|


  (2:26) Chorus (play 4x)
e|---------------------------------------------------|
B|---------------------------------------------------|
G|---------------------------------------------------|
D|---------------------------------------------------|
A|---------------------------------------------------|
E|--10-10-10-10-10-10-10-10-10-10-10-10-10-10-10-10--|

e|---------------------------------------------------|
B|---------------------------------------------------|
G|---------------------------------------------------|
D|---------------------------------------------------|
A|---------------------------------------------------|
E|--2--2--2--2--2--2--2--2--3--3--3--3--3--3--3--3---|


  (2:52) Bridge (play 2x)
e|---------------------------------------------------|
B|---------------------------------------------------|
G|--7----x--7-7-7----x--7-7-7----x--7-7-7----x-12-12-|
D|-------x-----------x-----------x-----------x-------|
A|--5----x--5-5-5----x-----------x-----------x-10-10-|
E|-------x-----------x--6-6-6----x--6-6-6----x-------|

e|---------------------------------------------------|
B|---------------------------------------------------|
G|--12---x-12-12-12--x--6-6-6----x--6-6-6----x--3-3--|
D|-------x-----------x-----------x-----------x-------|
A|--10---x-10-10-10--x--4-4-4----x--4-4-4----x-------|
E|-------x-----------x-----------x-----------x--3-3--|

e|---------------------------------------------------|
B|---------------------------------------------------|
G|--3----x--3-3-3----x--3-3-3----x--3-3-3----x--7-7--|
D|-------x-----------x-----------x-----------x-------|
A|-------x-----------x-----------x-----------x-------|
E|--3----x--3-3-3----x--2-2-2----x--2-2-2----x--6-6--|

e|---------------------------------------------------|
B|---------------------------------------------------|
G|--7----x--7-7-7----x--6-6-6----x--6-6-6------------|
D|-------x-----------x-----------x-------------------|
A|-------x-----------x-----------x-------------------|
E|--6----x--6-6-6----x--5-5-5----x--5-5-5------------|


  (3:16) Outro
e|---------------------------------------------------|
B|---------------------------------------------------|
G|--6-6-6-6-6-6-6-6-6-6-6-6-6-6-6-6-3~-----------3---|
D|---------------------------------------------------|
A|---------------------------------------------------|
E|--5-5-5-5-5-5-5-5-5-5-5-5-5-5-5-5-3~-----------3---|
Tap to rate this tab
# A B C D E F G H I J K L M N O P Q R S T U V W X Y Z