Song name
# A B C D E F G H I J K L M N O P Q R S T U V W X Y Z

Blood Red Shoes - Keeping It Close tab

------------------------------------------------------
          Blood Red Shoes - Keeping It Close
------------------------------------------------------


Tuning: EADGBe


  (0:03) Intro
e|--------------------------------0------------------|
B|--------------------------------0------------------|
G|--6--6----6-6--------------------------------------|
D|--6--6----6-6-6---6-6-7---7-7-2--------------------|
A|--4--4----4-4-6---6-6-7---7-7-2-----2-4---4--------|
E|--------------4---4-4-5---5-5-0-------------4-2-4--|

e|--------------------------------0------------------|
B|--------------------------------0------------------|
G|-x-x-6----6-6--------------------------------------|
D|-x-x-6----6-6-6---6-6-7---7-7-2--------------------|
A|-x-x-4----4-4-6---6-6-7---7-7-2-----2-4---4--------|
E|--------------4---4-4-5---5-5-0-------------4-2-4--|

e|--------------------------------0------------------|
B|--------------------------------0------------------|
G|-----6----6-6--------------------------------------|
D|-----6----6-6-6---6-6-7---7-7-2--------------------|
A|-----4----4-4-6---6-6-7---7-7-2-----2-4---4--------|
E|-0-0----------4---4-4-5---5-5-0-------------4-2-4--|
PM . .

e|--------------------------------0---|
B|--------------------------------0---|
G|-----6----6-6-----------------------|
D|-----6----6-6-6---6-6-7---7-7-2-----|
A|-----4----4-4-6---6-6-7---7-7-2-----|
E|-0-0----------4---4-4-5---5-5-0-----|
PM . .

e|------------------------------------|
B|------------------------------------|
G|------------------------------------|
D|--------------------------------2~--|
A|--2--4---4-----2---2------------2~--|
E|------------4---------2--4---4--0~--|


  (0:34) Verse (play 3x)
e|--------0---------------0---------------0----------|
B|------------2---------------2---------------2------|
G|---------------------------------------------------|
D|---------------------------------------------------|
A|--4--4---------4--0--0---------0--5--5---------5---|
E|---------------------------------------------------|

e|--------0---------------0---------------0----------|
B|------------2---------------2---------------2------|
G|---------------------------------------------------|
D|---------------------------------------------------|
A|--4--4------------0--0---------0--5--5---------5---|
E|---------------------------------------------------|


  (1:05) Pre-chorus (play 4x)
e|---------------------------------------------------|
B|---------------------------------------------------|
G|---------------------------------------------------|
D|--6--6--6--6--6--6--6--6--2--2--2--2--2--2--2--2---|
A|--6--6--6--6--6--6--6--6--2--2--2--2--2--2--2--2---|
E|--4--4--4--4--4--4--4--4--0--0--0--0--0--0--0--0---|
PM  .  .  .  .  .  .  .  .  .  .  .  .  .  .  .  .

e|---------------------------------------------------|
B|---------------------------------------------------|
G|---------------------------------------------------|
D|--4--4--4--4--4--4--4--4--6--6--6--6--6--6--6--6---|
A|--4--4--4--4--4--4--4--4--6--6--6--6--6--6--6--6---|
E|--2--2--2--2--2--2--2--2--4--4--4--4--4--4--4--4---|
PM  .  .  .  .  .  .  .  .  .  .  .  .  .  .  .  .


  (1:32) Chorus
e|--------------------------------0------------------|
B|--------------------------------0------------------|
G|-----6----6-6--------------------------------------|
D|-----6----6-6-6---6-6-7---7-7-2--------------------|
A|-----4----4-4-6---6-6-7---7-7-2-----2-4---4--------|
E|--------------4---4-4-5---5-5-0-------------4-2-4--|

e|--------------------------------0------------------|
B|--------------------------------0------------------|
G|-x-x-6----6-6--------------------------------------|
D|-x-x-6----6-6-6---6-6-7---7-7-2--------------------|
A|-x-x-4----4-4-6---6-6-7---7-7-2-----2-4---4--------|
E|--------------4---4-4-5---5-5-0-------------4-2-4--|

e|--------------------------------0------------------|
B|--------------------------------0------------------|
G|-----6----6-6--------------------------------------|
D|-----6----6-6-6---6-6-7---7-7-2--------------------|
A|-----4----4-4-6---6-6-7---7-7-2-----2-4---4--------|
E|-0-0----------4---4-4-5---5-5-0-------------4-2-4--|
PM . .

e|---------------------------------------------------|
B|---------------------------------------------------|
G|-----6----6-6-9---9-9------------------------------|
D|-----6----6-6-9---9-9-9---9-9-6-----------6-6-6-6--|
A|-----4----4-4-7---7-7-9---9-9-6-------6-6-6-6-6-6--|
E|-0-0------------------7---7-7-4---4-4-4-4-4-4-4-4--|
PM . .


  (1:59) Bridge
e|---------------------------------------------------|
B|---------------------------------------------------|
G|---------------------------------------------------|
D|--------------------------9--9--9--9--9--9--9--9---|
A|--7--7--7--7--7--7--7--7---------------------------|
E|--0--0--0--0--0--0--0--0--7--7--7--7--7--7--7--7---|

e|---------------------------------------------------|
B|---------------------------------------------------|
G|---------------------------------------------------|
D|--12-12-12-11-11-11-11-11-11-11-11-11-11\----------|
A|---------------------------------------------------|
E|--10-10-10-9--9--9--9--9--9--9--9--9--9\-----------|

e|---------------------------------------------------|
B|---------------------------------------------------|
G|---------------------------------------------------|
D|--------------------------9--9--9--9--9--4--4--4---|
A|--7--7--7--7--7--7--7--7-----------------4--4--4---|
E|--0--0--0--0--0--0--0--0--7--7--7--7--7--2--2--2---|

e|---------------------------------------------------|
B|---------------------------------------------------|
G|--6--6--6--6b-6b-6r-6r-6---------------------------|
D|--------------------------6--6--6--6--6--6--6--6---|
A|--4--4--4--4b-4b-4r-4r-4--6--6--6--6--6--6--6--6---|
E|--------------------------4--4--4--4--4--4--4--4---|

e|---------------------------------------------------|
B|---------------------------------------------------|
G|---------------------------------------------------|
D|---------------------------------------------------|
A|--9--9--9--9--9--9--9--9--7--7--7--7--7--7--7--7---|
E|---------------------------------------------------|

e|---------------------------------------------------|
B|---------------------------------------------------|
G|---------------------------------------------------|
D|---------------------------------------------------|
A|--4--4--4--4--4--4--4--4--7--------7--------7------|
E|--------------------------0--0--0--0--0--0--0--0---|

e|---------------------------------------------------|
B|---------------------------------------------------|
G|---------------------------------------------------|
D|---------------------------------------------------|
A|--9--9--9--9--9--9--9--9--7--7--7--7--7--7--7--7---|
E|---------------------------------------------------|

e|---------------------------------------------------|
B|---------------------------------------------------|
G|---------------------------------------------------|
D|---------------------------------------------------|
A|--4--4--4--4--4--4--4--4--2--2--2--2--2--2--2--2---|
E|---------------------------------------------------|


  (2:25) Pre-chorus (play 4x)
e|---------------------------------------------------|
B|---------------------------------------------------|
G|---------------------------------------------------|
D|--6--6--6--6--6--6--6--6--2--2--2--2--2--2--2--2---|
A|--6--6--6--6--6--6--6--6--2--2--2--2--2--2--2--2---|
E|--4--4--4--4--4--4--4--4--0--0--0--0--0--0--0--0---|
PM  .  .  .  .  .  .  .  .  .  .  .  .  .  .  .  .

e|---------------------------------------------------|
B|---------------------------------------------------|
G|---------------------------------------------------|
D|--4--4--4--4--4--4--4--4--6--6--6--6--6--6--6--6---|
A|--4--4--4--4--4--4--4--4--6--6--6--6--6--6--6--6---|
E|--2--2--2--2--2--2--2--2--4--4--4--4--4--4--4--4---|
PM  .  .  .  .  .  .  .  .  .  .  .  .  .  .  .  .


  (2:51) Chorus
e|--------------------------------0------------------|
B|--------------------------------0------------------|
G|-----6----6-6--------------------------------------|
D|-----6----6-6-6---6-6-7---7-7-2--------------------|
A|-----4----4-4-6---6-6-7---7-7-2-----2-4---4--------|
E|--------------4---4-4-5---5-5-0-------------4-2-4--|

e|--------------------------------0------------------|
B|--------------------------------0------------------|
G|-x-x-6----6-6--------------------------------------|
D|-x-x-6----6-6-6---6-6-7---7-7-2--------------------|
A|-x-x-4----4-4-6---6-6-7---7-7-2-----2-4---4--------|
E|--------------4---4-4-5---5-5-0-------------4-2-4--|

e|---------------------------------------------------|
B|---------------------------------------------------|
G|-----6----6-6-9---9-9------------------------------|
D|-----6----6-6-9---9-9-9---9-9-6--------------------|
A|-----4----4-4-7---7-7-9---9-9-6-----2-4---4-12-11--|
E|-0-0------------------7---7-7-4--------------------|
PM . .

e|--------------------------------0------------------|
B|--------------------------------0------------------|
G|-----6----6-6--------------------------------------|
D|-----6----6-6-6---6-6-7---7-7-2--------------------|
A|-----4----4-4-6---6-6-7---7-7-2-----2-4---4-12-11--|
E|-0-0----------4---4-4-5---5-5-0--------------------|
PM . .



************************************

| /   slide up
| \   slide down
| h   hammer-on
| p   pull-off
| ~   vibrato
| +   harmonic
| x   Mute note
| PM  Palm mute
| b   Bend
| pb  Pre-bend
| br  Bend release
| pbr Pre-bend release
| brb Bend release bend

************************************
Tap to rate this tab
# A B C D E F G H I J K L M N O P Q R S T U V W X Y Z