Song name
# A B C D E F G H I J K L M N O P Q R S T U V W X Y Z

Blood Red Shoes - One More Empty Chair tab

----------------------------------------------------------------------
                Blood Red Shoes - One More Empty Chair
----------------------------------------------------------------------


Tuning: EADGBe


  (0:00) Intro (play 3x)
e|-------------------------------------------------------------------|
B|-------------------------------------------------------------------|
G|-------------------------------------------------------------------|
D|------5---------------9-------7-------5----------------9-------7---|
A|----5---------------9-------7-------5----------------9-------7-----|
E|--3--------------/7-----5---------3-----0---------/7-----5---------|

e|-------------------------------------------------------------------|
B|-------------------------------------------------------------------|
G|-------------------------------------------------------------------|
D|------5---------------9-------7---------12-------------------------|
A|----5---------------9-------7--------12----------------------------|
E|--3-----0--------/7-----5--------/10--------7~---------------------|


  (0:43) Pre-chorus
e|-------------------------------------------------------------------|
B|-------------------------------------------------------------------|
G|------7-7-----7-7-----7-7-7-9-7-------2-2-2-0-0-------2-0-2-0-2-0--|
D|-------------------------------------------------------------------| 4x
A|-------------------------------------------------------------------|
E|--7-7-----7-7-----7-7-------------3-3-----------0---0--------------|

e|-----------------------------------|
B|-----------------------------------|
G|------2-2-2-0-0-------2-0-2-0-2-0--|
D|-----------------------------------| 3x
A|-----------------------------------|
E|--3-3-----------0---0--------------|


  (1:22) Chorus (play 2x)
e|-------------------------------------------------------------------|
B|-------------------------------------------------------------------|
G|-------------------------------------------------------------------|
D|--9----7--9----7--9----7--12--7---5-5-5-5-5-4-4-2---2-2-2-2-2-2-2--|
A|--9----7--9----7--9----7--12--7---5-5-5-5-5-4-4-2---2-2-2-2-2-2-2--|
E|--7----5--7----5--7----5--10--5---3-3-3-3-3-2-2-0---0-0-0-0-0-0-0--|

e|-------------------------------------------------------------------|
B|-------------------------------------------------------------------|
G|--------------------------------------------11-11-9-9-9-9-9-9-9-9--|
D|--9----7--9----7--9----7--12--7---5-5-5-5-5-------9-9-9-9-9-9-9-9--|
A|--9----7--9----7--9----7--12--7---5-5-5-5-5-9--9--7-7-7-7-7-7-7-7--|
E|--7----5--7----5--7----5--10--5---3-3-3-3-3-------0-0-0-0-0-0-0-0--|


  (1:49)
e|-----------------------------------|
B|-----------------------------------|
G|------------11-11-9~---------------|
D|--5-5-5-5-5-------9~---------------|
A|--5-5-5-5-5-9--9--7~---------------|
E|--3-3-3-3-3-------0~---------------|


  (1:54) Verse
e|-------------------------------------------------------------------|
B|-------------------------------------------------------------------|
G|-------------------------------------------------------------------|
D|------5---------------9-------7-------5----------------9-------7---|
A|----5---------------9-------7-------5----------------9-------7-----|
E|--3--------------/7-----5---------3-----0---------/7-----5---------|

e|-------------------------------------------------------------------|
B|-------------------------------------------------------------------|
G|-------------------------------------------------------------------|
D|------5---------------9-------7---------12-------------------------|
A|----5---------------9-------7--------12----------------------------|
E|--3-----0--------/7-----5--------/10--------7~---------------------|

e|-------------------------------------------------------------------|
B|-------------------------------------------------------------------|
G|-------------------------------------------------------------------|
D|------5---------------9-------7-------5----------------9-------7---|
A|----5---------------9-------7-------5----------------9-------7-----|
E|--3--------------/7-----5---------3-----0---------/7-----5---------|

e|-------------------------------------------------------------------|
B|-------------------------------------------------------------------|
G|-------------------------------------------------------------------|
D|------4---------------9-------7---------12-------------------------|
A|----4---------------9-------7--------12----------------------------|
E|--2-----3--------/7-----5--------/10--------7~---------------------|


  (2:22) Pre-chorus
e|-------------------------------------------------------------------|
B|-------------------------------------------------------------------|
G|------7-7-----7-7-----7-7-7-9-7-------2-2-2-0-0-------2-0-2-0-2-0--|
D|-------------------------------------------------------------------| 4x
A|-------------------------------------------------------------------|
E|--7-7-----7-7-----7-7-------------3-3-----------0---0--------------|

e|-----------------------------------|
B|-----------------------------------|
G|------2-2-2-0-0-------2-0-2-0-2-0--|
D|-----------------------------------|
A|-----------------------------------|
E|--3-3-----------0---0--------------|


  (2:54) Chorus (play 2x)
e|-------------------------------------------------------------------|
B|-------------------------------------------------------------------|
G|-------------------------------------------------------------------|
D|--9----7--9----7--9----7--12--7---5-5-5-5-5-4-4-2---2-2-2-2-2-2-2--|
A|--9----7--9----7--9----7--12--7---5-5-5-5-5-4-4-2---2-2-2-2-2-2-2--|
E|--7----5--7----5--7----5--10--5---3-3-3-3-3-2-2-0---0-0-0-0-0-0-0--|

e|-------------------------------------------------------------------|
B|-------------------------------------------------------------------|
G|--------------------------------------------11-11-9-9-9-9-9-9-9-9--|
D|--9----7--9----7--9----7--12--7---5-5-5-5-5-------9-9-9-9-9-9-9-9--|
A|--9----7--9----7--9----7--12--7---5-5-5-5-5-9--9--7-7-7-7-7-7-7-7--|
E|--7----5--7----5--7----5--10--5---3-3-3-3-3-------0-0-0-0-0-0-0-0--|


  (3:21)
e|-------------------------------------------------------------------|
B|-------------------------------------------------------------------|
G|------------11-11-9-9-9-9-9-9-9-9-------------2--0-----------------|
D|--5-5-5-5-5-------9-9-9-9-9-9-9-9--5-5-5-5-5--------2~-------------|
A|--5-5-5-5-5-9--9--7-7-7-7-7-7-7-7--5-5-5-5-5--------2~-------------|
E|--3-3-3-3-3-------0-0-0-0-0-0-0-0--3-3-3-3-3--------0~-------------|



************************************

| /   slide up
| \   slide down
| h   hammer-on
| p   pull-off
| ~   vibrato
| +   harmonic
| x   Mute note
| b   Bend
| pb  Pre-bend
| br  Bend release
| pbr Pre-bend release
| brb Bend release bend

************************************
Tap to rate this tab
 
# A B C D E F G H I J K L M N O P Q R S T U V W X Y Z