Song name
# A B C D E F G H I J K L M N O P Q R S T U V W X Y Z

Blood Red Shoes - Surf Song tab

---------------------------------------------------------------
                  Blood Red Shoes - Surf Song
---------------------------------------------------------------


Tuning: EADGBe


  (0:02)
e|----------------------------|
B|----------------------------|
G|----------------------------|
D|----------------------------|
A|----------------------------|
E|--12\\\\\\\\\\\\\\\\\\\\\\--|


  (0:04)
e|------------------------------------------------------------|
B|--------------------------------------5--5-5-5--5--3--5--0--|
G|------------------------------------------------------------|
D|--2~----------7~----------2~--------------------------------|
A|--2~----------7~----------2~--------------------------------|
E|--0~----------5~----------0~--------------------------------|

e|------------------------------------------------------------|
B|------------------------------------------------------------|
G|------------------------------------------------------------|
D|--2~----------7~----------2~--------------------------------|
A|--2~----------7~----------2~--------------------------------|
E|--0~----------5~----------0~----------12\\\\\\\\\\\\\\\\\\--|


  (0:18)
e|------------------------------------------------------------|
B|------------------------------------------------------------|
G|------------------------------------------------------------|
D|------------------------------------------------------------| 4x
A|------------------------------------------------------------|
E|--0--0-0--0-0/7--7-7--7-7\-/10--10-10--10-10\-/5--5-5--5\0--|


  (0:40)
e|------------------------------------------------------------|
B|--------------------------------------5--5-5-5--5--3--5--0--|
G|------------------------------------------------------------|
D|--2~----------7~----------2~--------------------------------|
A|--2~----------7~----------2~--------------------------------|
E|--0~----------5~----------0~--------------------------------|

e|------------------------------------------------------------|
B|------------------------------------------------------------|
G|------------------------------------------------------------|
D|--2~----------7~----------2~--------------------------------|
A|--2~----------7~----------2~--------------------------------|
E|--0~----------5~----------0~----------12\\\\\\\\\\\\\\\\\\--|


  (0:52)
e|------------------------------------------------------------|
B|------------------------------------------------------------|
G|------------------------------------------------------------|
D|------------------------------------------------------------| 4x
A|------------------------------------------------------------|
E|--0--0-0--0-0/7--7-7--7-7\-/10--10-10--10-10\-/5--5-5--5\0--|


  (1:14)
e|------------------------------------------------------------|
B|--------------------------------------5--5-5-5--5--3--5--0--|
G|------------------------------------------------------------|
D|--2~----------7~----------2~--------------------------------|
A|--2~----------7~----------2~--------------------------------|
E|--0~----------5~----------0~--------------------------------|

e|------------------------------------------------------------|
B|------------------------------------------------------------|
G|------------------------------------------------------------|
D|--2~----------7~----------2~--------------------------------|
A|--2~----------7~----------2~----------12\\\\\\\\\\\\\\\\\\--|
E|--0~----------5~----------0~--------------------------------|


  (1:26)
e|------------------------------------------------------------|
B|------------------------------------------------------------|
G|------------------------------------------------------------|
D|------------------------------------------------------------| 2x
A|--7---7--7--7----7--7--7----7--2---2--2--2----2--2--2----2--|
E|--5---5--5--5----5--5--5----5--0---0--0--0----0--0--0----0--|

e|------------------------------------------------------------|
B|------------------------------------------------------------|
G|------------------------------------------------------------|
D|------------------------------------------------2--2--2--2--|
A|-10-10-10-10-10-10\5--5--5/7--7--7\-------2--2--2--2--2--2--|
E|--8--8--8--8--8--8\3--3--3/5--5--5\-0--0--0--0--0--0--0--0--|


  (1:44)
e|------------------------------------------------------------|
B|------------------------------------------------------------|
G|------------------------------------------------------------|
D|--2--2-2--2-2/9--9-9--9-9\-/12--12-12--12-12\-/7--7-7--7\2--| 4x
A|--2--2-2--2-2/9--9-9--9-9\-/12--12-12--12-12\-/7--7-7--7\2--|
E|--0--0-0--0-0/7--7-7--7-7\-/10--10-10--10-10\-/5--5-5--5\0--|


  (2:06)
e|------------------------------------------------------------|
B|------------------------------------------------------------|
G|------------------------------------------------------------|
D|--2~----------7~----------2~--------------------------2-----|
A|--2~----------7~----------2~--------------------------2-----|
E|--0~----------5~----------0~--------------------------0-----|
Tap to rate this tab
# A B C D E F G H I J K L M N O P Q R S T U V W X Y Z