Song name
# A B C D E F G H I J K L M N O P Q R S T U V W X Y Z

Blood Red Shoes - Dont Ask tab

----------------------------------------------------------------------------
			     Don't Ask - Blood Red Shoes

				 from Fire Like This
----------------------------------------------------------------------------

Tabbed by: pie_maker_dvd

Email: david[dot]kouril[at]gmail[dot]com

i wasn't satisfied with the tab that is already uploaded so here is my tabbed version of 
Ask by my favorite band Blood Red Shoes.
i think it's much more closer to how it is played in real by laura-mary.
enjoy.


intro: (play this part 2x)

e|---------------------------------------------------|
B|--12-12-12-12-12-12-12-12--------------------------|
G|--------------------------12-12-12-12-12-12-12-12--|
D|---------------------------------------------------|
A|---------------------------------------------------|
E|--12-12-12-12-12-12-12-12-12-12-12-12-12-12-12-12--|


e|---------------------------------------------------|
B|--12-12-12-12-12-12-12-12--------------------------|
G|--------------------------12-12-12-12-12-12-12-12--|
D|---------------------------------------------------|
A|---------------------------------------------------|
E|--12-12-12-12-12-12-12-12-12-12-12-12-12-12-12-12--|


e|---------------------------------------------------|
B|---------------------------------------------------|
G|--7-7-7-7-7-7-7-7----------------------------------|
D|------------------7-7-7-7-7-7-7-7-2-2-2-2-2-2-2-2--|
A|------------------7-7-7-7-7-7-7-7-2-2-2-2-2-2-2-2--|
E|--7-7-7-7-7-7-7-7-5-5-5-5-5-5-5-5-0-0-0-0-0-0-0-0--|

e|---------------------------------------------------|
B|---------------------------------------------------|
G|---------------------------------------------------|
D|--2-2-2-2-2-2-2-2----------------------------------|
A|--2-2-2-2-2-2-2-2----------------------------------|
E|--0-0-0-0-0-0-0-0----------------------------------|


verse: (play this part 4x)

e|---------------------------------------------------|
B|--12-0----0-12-0----0-12-0----0-12-0---------------|
G|-------12--------12--------12--------12-0-9-0-9-0--|
D|---------------------------------------------------|
A|---------------------------------------------------|
E|---------------------------------------------------|


e|---------------------------------------------------|
B|---------------------------------------------------|
G|--12-0-12-0-9-0-9-0-12-0-12-0----------------------|
D|---------------------------------------------------|
A|---------------------------------------------------|
E|---------------------------------------------------|

verse II.: (play this part 2x)

e|---------------------------------------------------|
B|---------------------------------------------------|
G|---------------------------------------------------|
D|--5-5-5-5/9-9-9-9----------------------------------|
A|------------------7-7-7-0-7-0-7-7-7-0-7-0----------|
E|---------------------------------------------------|

verse III.:

e|---------------------------------------------------|
B|---------------------------------------------------|
G|---------------------------------------------------|
D|------------------2-2-2-2-2-2-2-2-2-2-2-2-2-2-2-2--|
A|------------------2-2-2-2-2-2-2-2-2-2-2-2-2-2-2-2--|
E|--7-7-7-7\3-3/5-5-0-0-0-0-0-0-0-0-0-0-0-0-0-0-0-0--|


main riff: (play this part 2x) //same as intro

e|---------------------------------------------------|
B|--12-12-12-12-12-12-12-12--------------------------|
G|--------------------------12-12-12-12-12-12-12-12--|
D|---------------------------------------------------|
A|---------------------------------------------------|
E|--12-12-12-12-12-12-12-12-12-12-12-12-12-12-12-12--|


e|---------------------------------------------------|
B|--12-12-12-12-12-12-12-12--------------------------|
G|--------------------------12-12-12-12-12-12-12-12--|
D|---------------------------------------------------|
A|---------------------------------------------------|
E|--12-12-12-12-12-12-12-12-12-12-12-12-12-12-12-12--|


e|---------------------------------------------------|
B|---------------------------------------------------|
G|--7-7-7-7-7-7-7-7----------------------------------|
D|------------------7-7-7-7-7-7-7-7-2-2-2-2-2-2-2-2--|
A|------------------7-7-7-7-7-7-7-7-2-2-2-2-2-2-2-2--|
E|--7-7-7-7-7-7-7-7-5-5-5-5-5-5-5-5-0-0-0-0-0-0-0-0--|

e|---------------------------------------------------|
B|---------------------------------------------------|
G|---------------------------------------------------|
D|--2-2-2-2-2-2-2-2----------------------------------|
A|--2-2-2-2-2-2-2-2----------------------------------|
E|--0-0-0-0-0-0-0-0----------------------------------|

verse: (play this part 4x)

e|---------------------------------------------------|
B|--12-0----0-12-0----0-12-0----0-12-0---------------|
G|-------12--------12--------12--------12-0-9-0-9-0--|
D|---------------------------------------------------|
A|---------------------------------------------------|
E|---------------------------------------------------|


e|---------------------------------------------------|
B|---------------------------------------------------|
G|--12-0-12-0-9-0-9-0-12-0-12-0----------------------|
D|---------------------------------------------------|
A|---------------------------------------------------|
E|---------------------------------------------------|

verse II.: (play this part 2x)

e|---------------------------------------------------|
B|---------------------------------------------------|
G|---------------------------------------------------|
D|--5-5-5-5/9-9-9-9----------------------------------|
A|------------------7-7-7-0-7-0-7-7-7-0-7-0----------|
E|---------------------------------------------------|

verse III.:

e|---------------------------------------------------|
B|---------------------------------------------------|
G|---------------------------------------------------|
D|------------------2-2-2-2-2-2-2-2-2-2-2-2-2-2-2-2--|
A|------------------2-2-2-2-2-2-2-2-2-2-2-2-2-2-2-2--|
E|--7-7-7-7\3-3/5-5-0-0-0-0-0-0-0-0-0-0-0-0-0-0-0-0--|

bridge: strumming might not be correct but intervals between power chords are.

e|---------------------------------------------------|
B|---------------------------------------------------|
G|---------------------------------------------------|
D|--2--222--777-555-999-999-171717--17-17-17-17------|(17s not 1s and 7s)
A|--2--222--777-555-999-999-171717--17-17-17-17------|
E|--0--000--555-333-777-777-151515--15-15-15-15------|(15s not 1s and 5s)


e|---------------------------------------------------|
B|---------------------------------------------------|
G|---------------------------------------------------|
D|--2--222--777-555-444-444-777----------------------|
A|--2--222--777-555-444-444-777----------------------|
E|--0--000--555-333-222-222-555-5-5-6-5-7------------|


e|---------------------------------------------------|
B|---------------------------------------------------|
G|---------------------------------------------------|
D|--2--222--777-555-999-999-171717--17-17-17-17------|(17s not 1s and 7s)
A|--2--222--777-555-999-999-171717--17-17-17-17------|
E|--0--000--555-333-777-777-151515--15-15-15-15------|(15s not 1s and 5s)


e|---------------------------------------------------|
B|---------------------------------------------------|
G|---------------------------------------------------|
D|--2--222--777-555-4444444444444444-----------------|
A|--2--222--777-555-4444444444444444-----------------|
E|--0--000--555-333-2222222222222222-----------------|


outro: (play this part 2x)

(on record outro has got some added effects but it's basically played same as intro and 
riff)

e|---------------------------------------------------|
B|--12-12-12-12-12-12-12-12--------------------------|
G|--------------------------12-12-12-12-12-12-12-12--|
D|---------------------------------------------------|
A|---------------------------------------------------|
E|--12-12-12-12-12-12-12-12-12-12-12-12-12-12-12-12--|


e|---------------------------------------------------|
B|--12-12-12-12-12-12-12-12--------------------------|
G|--------------------------12-12-12-12-12-12-12-12--|
D|---------------------------------------------------|
A|---------------------------------------------------|
E|--12-12-12-12-12-12-12-12-12-12-12-12-12-12-12-12--|


e|---------------------------------------------------|
B|---------------------------------------------------|
G|--7-7-7-7-7-7-7-7----------------------------------|
D|------------------7-7-7-7-7-7-7-7-2-2-2-2-2-2-2-2--|
A|------------------7-7-7-7-7-7-7-7-2-2-2-2-2-2-2-2--|
E|--7-7-7-7-7-7-7-7-5-5-5-5-5-5-5-5-0-0-0-0-0-0-0-0--|

e|---------------------------------------------------|
B|---------------------------------------------------|
G|---------------------------------------------------|
D|--2-2-2-2-2-2-2-2----------------------------------|
A|--2-2-2-2-2-2-2-2----------------------------------|
E|--0-0-0-0-0-0-0-0----------------------------------|


and that's it. hope you like it. comments are appreciated.

************************************

| /   slide up
| \   slide down

************************************
Tap to rate this tab
 
# A B C D E F G H I J K L M N O P Q R S T U V W X Y Z