Blood Red Shoes - Colours Fade tab

-----------------------------------------------------------------------------
			     Colours Fade (Intro) - Blood Red Shoes
-----------------------------------------------------------------------------

Watching a few live videos, I realised that the intros that had been tabbed
here aren't what Laura-Mary plays. From the video, this is what I think it's
supposed to be:

Tuning: EADGBe

e|-----------------------------------------------------------------------|
B|-----------------------------------------------------------------------|
G|--9-9-9-9-9-9-9-9-9-9-9-9-9-9-9-9-9-9-9-9-9-9-9-9-9-9-9-9-9-9-9-9------|
D|--9-9-9-9-9-9-9-9-9-9-9-9-9-9-9-9-9-9-9-9-9-9-9-9-9-9-9-9-9-9-9-9------| x8
A|--7-7-7-7-7-7-7-7-8-8-8-8-8-8-8-8-----------------7-7-7-7-7-7-7-7------|
E|----------------------------------8-8-8-8-8-8-8-8-6-6-6-6-6-6-6-6------|


I'm not 100% about the last bit, stupid video kept cutting away when she was
about to play it but it sounds right to me. I'll put up the rest of the song
as soon as I figure it out
Tap to rate this tab
 
# A B C D E F G H I J K L M N O P Q R S T U V W X Y Z