Blood Red Shoes - It Is Happening Again tab

-----------------------------------------------------
------------   It Is Happening Again   --------------
---------------------   by   ------------------------
---------------   Blood Red Shoes   -----------------
-----------------------------------------------------
------------   Tabbed by Eric Sartor   --------------
-----------------------------------------------------

Tuning: EADGBE (Standard)


Intro (play 4x)
e|---------------------------------|
B|---------------------------------|
G|-3-3-3-3-3-3-3-3-3-3-3-3-3-3-3-3-|
D|-5-5-5-5-5-5-5-5-5-5-5-5-5-4-4-4-|
A|-5-5-5-5-5-5-5-5-5-5-5-5-5-4-4-4-|
E|-3-3-3-3-3-3-3-3-3-3-3-3-3-2-2-2-|

You don't have to do those 3s on the G, but it's
definitely in there, so if you can, do it.


Verse (play 6x)
e|---------------------------------|
B|---------------------------------|
G|-7-7---7-7---7-7---7-7-----------|
D|-7-7---7-7---6-6---6-6-----------|
A|-----------------------5-7-7-----|
E|-----------------------------5-5-|

e|---------------------------------|
B|---------------------------------|
G|---------------------------------|
D|---------------------------------|
A|---------------------------------|
E|-7-7-7-7-7-0-0-777-7-7-7-7-0-0-0-|


Pre-chorus
e|---------------------------------|
B|---------------------------------|
G|-2-2-2-2-2-2-2-2-3-3-3-3-3-3-3-3-|
D|---------------------------------|
A|---------------------------------|
E|-2-2-2-2-2-2-2-2-3-3-3-3-3-3-3-3-|


Chorus (play 4x)
e|---------------------------------|
B|---------------------------------|
G|-7-7-7-7-7-7-7-7-7-7-7-7-7-7-7-7-|
D|---------------------------------|
A|---------------------------------|
E|-7-7-7-7-7-7-7-7-7-7-7-7-7-7-7-7-|

e|---------------------------------|
B|---------------------------------|
G|-2-2-2-2-2-2-2-2-3-3-3-3-3-3-3-3-|
D|---------------------------------|
A|---------------------------------|
E|-2-2-2-2-2-2-2-2-3-3-3-3-3-3-3-3-|


Bridge
e|-------------------------------------------|
B|-------------------------------------------|
G|-7---x-7-7-7---x-7-7-7---x-7-7-7---x-12-12-|
D|-----x---------x---------x---------x-------|
A|-----x---------x---------x---------x-------|
E|-7---x-7-7-7---x-6-6-6---x-6-6-6---x-11-11-|

e|---------------------------------------------|
B|---------------------------------------------|
G|-12---x-12-12-12---x-6-6-6---x-6-6-6---x-3-3-|
D|------x------------x---------x---------x-----|
A|------x------------x---------x---------x-----|
E|-11---x-11-11-11---x-5-5-5---x-5-5-5---x-3-3-|

e|-----------------------------------------|
B|-----------------------------------------|
G|-3---x-3-3-3---x-3-3-3---x-3-3-3---x-3-3-|
D|-----x---------x---------x---------x-----|
A|-----x---------x---------x---------x-1-1-|
E|-3---x-3-3-3---x-2-2-2---x-2-2-2---x-----|

e|------------------------------------------|
B|------------------------------------------|
G|-3---x-3-3-3---x-7-7-7---x-7-7-7----x-7-7-|
D|-----x---------x-7-7-7---x-7-7-7----x-----|
A|-1---x-1-1-1---x---------x----------x-----|
E|-----x---------x-5-5-5---x-5-5-5----x-7-7-|

e|-------------------------------------------|
B|-------------------------------------------|
G|-7---x-7-7-7---x-7-7-7---x-7-7-7---x-12-12-|
D|-----x---------x---------x---------x-------|
A|-----x---------x---------x---------x-------|
E|-7---x-7-7-7---x-6-6-6---x-6-6-6---x-11-11-|

e|---------------------------------------------|
B|---------------------------------------------|
G|-12---x-12-12-12---x-6-6-6---x-6-6-6---x-3-3-|
D|------x------------x---------x---------x-----|
A|------x------------x---------x---------x-----|
E|-11---x-11-11-11---x-5-5-5---x-5-5-5---x-3-3-|

e|-----------------------------------------|
B|-----------------------------------------|
G|-3---x-3-3-3---x-3-3-3---x-3-3-3---x-3-3-|
D|-----x---------x---------x---------x-----|
A|-----x---------x---------x---------x-1-1-|
E|-3---x-3-3-3---x-2-2-2---x-2-2-2---x-----|

e|-----------------------------------------------------|
B|-----------------------------------------------------|
G|-3---x-3-3-3---x-7-7-7-7-7-7-7-7-7-7-7-7-7-7-7-7-7-7-|
D|-----x---------x-7-7-7-7-7-7-7-7-7-7-7-7-7-7-7-7-7-7-|
A|-1---x-1-1-1---x-------------------------------------|
E|-----x---------x-5-5-5-5-5-5-5-5-5-5-5-5-5-5-5-5-5-5-|


Verse (play 5x)
e|---------------------------------|
B|---------------------------------|
G|-7-7---7-7---7-7---7-7-----------|
D|-7-7---7-7---6-6---6-6-----------|
A|-----------------------5-7-7-----|
E|-----------------------------5-5-|

e|---------------------------------|
B|---------------------------------|
G|---------------------------------|
D|---------------------------------|
A|---------------------------------|
E|-7-7-7-7-7-0-0-777-7-7-7-7-0-0-0-|


Pre-chorus
e|---------------------------------|
B|---------------------------------|
G|-2-2-2-2-2-2-2-2-3-3-3-3-3-3-3-3-|
D|---------------------------------|
A|---------------------------------|
E|-2-2-2-2-2-2-2-2-3-3-3-3-3-3-3-3-|


Chorus (play 4x)
e|---------------------------------|
B|---------------------------------|
G|-7-7-7-7-7-7-7-7-7-7-7-7-7-7-7-7-|
D|---------------------------------|
A|---------------------------------|
E|-7-7-7-7-7-7-7-7-7-7-7-7-7-7-7-7-|

e|---------------------------------|
B|---------------------------------|
G|-2-2-2-2-2-2-2-2-3-3-3-3-3-3-3-3-|
D|---------------------------------|
A|---------------------------------|
E|-2-2-2-2-2-2-2-2-3-3-3-3-3-3-3-3-|


Bridge (play 2x)
e|-------------------------------------------|
B|-------------------------------------------|
G|-7---x-7-7-7---x-7-7-7---x-7-7-7---x-12-12-|
D|-----x---------x---------x---------x-------|
A|-----x---------x---------x---------x-------|
E|-7---x-7-7-7---x-6-6-6---x-6-6-6---x-11-11-|

e|---------------------------------------------|
B|---------------------------------------------|
G|-12---x-12-12-12---x-6-6-6---x-6-6-6---x-3-3-|
D|------x------------x---------x---------x-----|
A|------x------------x---------x---------x-----|
E|-11---x-11-11-11---x-5-5-5---x-5-5-5---x-3-3-|

e|-----------------------------------------|
B|-----------------------------------------|
G|-3---x-3-3-3---x-3-3-3---x-3-3-3---x-3-3-|
D|-----x---------x---------x---------x-----|
A|-----x---------x---------x---------x-1-1-|
E|-3---x-3-3-3---x-2-2-2---x-2-2-2---x-----|

e|------------------------------------------|
B|------------------------------------------|
G|-3---x-3-3-3---x-7-7-7---x-7-7-7----x-7-7-|
D|-----x---------x-7-7-7---x-7-7-7----x-----|
A|-1---x-1-1-1---x---------x----------x-----|
E|-----x---------x-5-5-5---x-5-5-5----x-7-7-|

e|-------------------------------------------|
B|-------------------------------------------|
G|-7---x-7-7-7---x-7-7-7---x-7-7-7---x-12-12-|
D|-----x---------x---------x---------x-------|
A|-----x---------x---------x---------x-------|
E|-7---x-7-7-7---x-6-6-6---x-6-6-6---x-11-11-|

e|---------------------------------------------|
B|---------------------------------------------|
G|-12---x-12-12-12---x-6-6-6---x-6-6-6---x-3-3-|
D|------x------------x---------x---------x-----|
A|------x------------x---------x---------x-----|
E|-11---x-11-11-11---x-5-5-5---x-5-5-5---x-3-3-|

e|-----------------------------------------|
B|-----------------------------------------|
G|-3---x-3-3-3---x-3-3-3---x-3-3-3---x-3-3-|
D|-----x---------x---------x---------x-----|
A|-----x---------x---------x---------x-1-1-|
E|-3---x-3-3-3---x-2-2-2---x-2-2-2---x-----|

e|-----------------------------------------------------|
B|-----------------------------------------------------|
G|-3---x-3-3-3---x-7-7-7-7-7-7-7-7-7-7-7-7-7-7-7-7-7-7-|
D|-----x---------x-7-7-7-7-7-7-7-7-7-7-7-7-7-7-7-7-7-7-|
A|-1---x-1-1-1---x-------------------------------------|
E|-----x---------x-5-5-5-5-5-5-5-5-5-5-5-5-5-5-5-5-5-5-|

e|-------------------------------------|
B|-------------------------------------|
G|-7-7-7-7-7-7-7-7-7-7-7-7-7-7-7-7-7-7-|
D|-7-7-7-7-7-7-7-7-7-7-7-7-7-7-7-7-7-7-|
A|-------------------------------------|
E|-5-5-5-5-5-5-5-5-5-5-5-5-5-5-5-5-5-5-|


Outro
e|------------------|
B|------------------|
G|-3~-----------3---|
D|------------------|
A|------------------|
E|-3~-----------3---|
Tap to rate this tab
 
# A B C D E F G H I J K L M N O P Q R S T U V W X Y Z