Blood Red Shoes - We Get Bored tab

Blood Red Shoes- We get bored
Album: Fire Like This

Hi, this is my first Tab. 
I hope it's correct. 

Standard Tuning

Chorus
|------------------------------------|
|------------------------------------|
|------------------------------------|
|------------------------------------|
|-5-5-5-5-5-2-2-2-4-4-4-4-4-2-2-2----|
|-3-3-3-3-3-0-0-0-2-2-2-2-2-0-0-0----|
I heard it's going so well... 

Verse
|---------------|
|---------------|
|---------------|
|---------------| let ring...
|-5--2--4--2----|
|-3--0--2--0----|
Spending time to assure yourself...

Interlude- clean
|-------------------------------------------------|
|-------------------------------------------------|
|-6-6-6-6-6--9--9--9-10--9-4-4-4-0-0-4-4-4-0-0----|
|-7-7-7-7-7-10-10-10-10-10-5-5-5-5-5-5-5-5-5-5----|
|-7-7-7-7-7-10-10-10-10-10-5-5-5-5-5-5-5-5-5-5----|
|-------------------------------------------------|

chorus with dist.
|----------------------|
|----------------------|
|----------------------|
|----------------------|
|----------------------|
|-3-3-5-5-7-7-10-10----|


|-------------------------------------------------|
|-5-5-5-5-5--8--8--8--8--8-3-3-3-----3-3-3--------|
|-6-6-6-6-6--9--9--9-10--9-4-4-4-0-0-4-4-4-0-0----|
|-7-7-7-7-7-10-10-10-10-10-5-5-5-5-5-5-5-5-5-5----|
|-7-7-7-7-7-10-10-10-10-10-5-5-5-5-5-5-5-5-5-5----|
|-5-5-5-5-5--8--8--8--8--8-3-3-3-----3-3-3--------|
We can't wait cause we'll get bored ...

Tap to rate this tab
 
# A B C D E F G H I J K L M N O P Q R S T U V W X Y Z