Song name
# A B C D E F G H I J K L M N O P Q R S T U V W X Y Z

Blood Red Shoes - Slip Into Blue tab

BLOOD RED SHOES - SLIP INTO BLUE (TAB)
____________________________________________________
INTRO

Chords (1st Guitar):
C - Em - G - Em

Riff (2nd Guitar)
e|----------------------------------------------0----0----0-|
B|---0----0----0-----------0----0----0--------4----4----4---|
G|-3----3----3-----------3----3----3------------------------|
D|----------------------------------------------------------|
A|----------------------------------------------------------|
E|----------------------------------------------------------|

____________________________________________________
VERSE

Chords (1st Guitar)
C - Em - G - Em

Riff (2nd Guitar)
e|--0--|------|---------------------0----0----0-|
B|-----|------|---0----0----0-----4----4----4---|
G|-----|--0---|-3----3----3---------------------|
D|-----|------|---------------------------------|
A|-----|------|---------------------------------|
E|-----|------|---------------------------------|

____________________________________________________
PRE-CHORUS

(1st and 2nd Guitar)
e|-------------------|-----------------------|
B|-------------------|-----------------------|
G|-------------------|-----------------------|
D|-------------------|-----------------------|
A|-------------------|-----------------------|
E|-3---5---7---3---0-|--G(Chord)----Em(Chord)|

Play this pattern three times, then play the riff without the final 0 on the low E string.
____________________________________________________
CHORUS

Chords (1st Guitar)
C - Dm - Am / C - G - F

Riff (2nd Guitar)
e|---7------7------7------7------------------------------8-----8-----8-----8----|
B|------------------------------------10-------10-------------------------------|
G|------9------9------9--------9----------9--------9--------9-----9-----9----9--|
D|------------------------------------------------------------------------------|
A|------------------------------------------------------------------------------|
E|------------------------------------------------------------------------------|

e|---7------7------7------7---------------------------------------------------|
B|------------------------------------10-------10------8-----8-----8-----8----|
G|------9------9------9------9----------9--------9-------9-----9-----9-----9--|
D|----------------------------------------------------------------------------|
A|----------------------------------------------------------------------------|
E|----------------------------------------------------------------------------|

Then repeat the riff and end it on the 12th fret of the high e string.
____________________________________________________
CHORUS OUTRO

Chords (1st Guitar)
F - Em - G - Em
____________________________________________________
INTRO

Chords (1st Guitar):
C - Em - G - Em

Riff (2nd Guitar)
e|----------------------------------------------0----0----0-|
B|---0----0----0-----------0----0----0--------4----4----4---|
G|-3----3----3-----------3----3----3------------------------|
D|----------------------------------------------------------|
A|----------------------------------------------------------|
E|----------------------------------------------------------|

____________________________________________________
VERSE

Chords (1st Guitar)
C - Em - G - Em

Riff (2nd Guitar)
e|--0--|------|---------------------0----0----0-|
B|-----|------|---0----0----0-----4----4----4---|
G|-----|--0---|-3----3----3---------------------|
D|-----|------|---------------------------------|
A|-----|------|---------------------------------|
E|-----|------|---------------------------------|

____________________________________________________
PRE-CHORUS

(1st and 2nd Guitar)
e|-------------------|-----------------------|
B|-------------------|-----------------------|
G|-------------------|-----------------------|
D|-------------------|-----------------------|
A|-------------------|-----------------------|
E|-3---5---7---3---0-|--G(Chord)----Em(Chord)|

Play this pattern three times, then play the riff without the final 0 on the low E string.
____________________________________________________
CHORUS

Chords (1st Guitar)
C - Dm - Am / C - G - F

Riff 2 (2nd Guitar)
e|---7--7----7--------10----10-----12---12-----12------|
B|-10-10---10--10---13---13------15--15------15---15---|
G|-----------------------------------------------------|
D|-----------------------------------------------------|
A|-----------------------------------------------------|
E|-----------------------------------------------------|

Repeat the chorus two times.
Repeat the riff 'till the end of the chorus, and end it on the 12th fret of the high e string.

____________________________________________________
ENDING

Play this Chord progression 'till the end of the song. You have to listen to the song to 
figure out the strumming patterns of the two guitars (Even though I think there's a 
third guitar that plays the same chords, strumming them just one times with tremolo/delay).

Chords (1st Guitar)
G - F - Bb - A

Riff (2nd Guitar)
e|--------10--12---10------13--13-----------10--12---10----------------|
B|-10-13--------------12------------13--10---------------13--11--10----|
G|---------------------------------------------------------------------|
D|---------------------------------------------------------------------|
A|---------------------------------------------------------------------|
E|---------------------------------------------------------------------|

End the riff on the 12th fret of the high e string, while the rhythm guitar plays the G chord.

Use a lot of reverb for the second guitar!
Tap to rate this tab
# A B C D E F G H I J K L M N O P Q R S T U V W X Y Z