Song name
# A B C D E F G H I J K L M N O P Q R S T U V W X Y Z

Blood Red Shoes - Down Here In The Dark tab

DOWN HERE IN THE DARK
__________________________________________________________________________________________________
INTRO

E|-------------------------|
B|-------------------------|
G|-------------------------|
D|-9--9--9--9\--6--6--6--6-|
A|-9--9--9--9\--6--6--6--6-|
E|-7--7--7--7\--4--4--4--4-|

__________________________________________________________________________________________________
VERSE

E|-------------------------|
B|-------------------------|
G|-------------------------|
D|-9--9--9--9\--6--6--6--6-|
A|-9--9--9--9\--6--6--6--6-|
E|-7--7--7--7\--4--4--4--4-|

__________________________________________________________________________________________________
CHORUS

E|----||--------------------------------------------------|
B|----||--------------------------------------------------|
G|----||--------------------------------------------------|
D|----||-4-4----------------------6--6--------------------|
A|----||-4-4----------------------6--6--------------------|
E|-0--||-2-2-/-14-14-14-14-16\11--4--4-/14-14-14-14-16\11-|
   
E|------------------------------------------------------|
B|------------------------------------------------------|
G|------------------------------------------------------|
D|-6--4-----------------------6--6----------------------|
A|-6--4-----------------------6--6----------------------|
E|-4--2---/14-14-14-14-16\11--4--4-/14-14-14-14-16\11---|
   
E|-------------------------|
B|-------------------------|
G|-------------------------|
D|-6--4--------------------|
A|-6--4--------------------|
E|-4--2-/14-14-14-14-16\11-|

__________________________________________________________________________________________________
BREAK

E|-------------------------------------------------------|
B|-------------------------------------------------------|
G|-------------------------------------------------------|
D|6--6--6--6--9-9-9-9-11-11-11-11-12-12-12-12-12-12-12-12|
A|6--6--6--6--9-9-9-9-11-11-11-11-12-12-12-12-12-12-12-12|
E|4--4--4--4--7-7-7-7-9--9--9--9--10-10-10-10-10-10-10-10|

__________________________________________________________________________________________________
VERSE

E|-------------------------|
B|-------------------------|
G|-------------------------|
D|-9--9--9--9\--6--6--6--6-|
A|-9--9--9--9\--6--6--6--6-|
E|-7--7--7--7\--4--4--4--4-|

__________________________________________________________________________________________________
CHORUS

E|----||--------------------------------------------------|
B|----||--------------------------------------------------|
G|----||--------------------------------------------------|
D|----||-4-4----------------------6--6--------------------|
A|----||-4-4----------------------6--6--------------------|
E|-0--||-2-2-/-14-14-14-14-16\11--4--4-/14-14-14-14-16\11-|
   
E|------------------------------------------------------|
B|------------------------------------------------------|
G|------------------------------------------------------|
D|-6--4-----------------------6--6----------------------|
A|-6--4-----------------------6--6----------------------|
E|-4--2---/14-14-14-14-16\11--4--4-/14-14-14-14-16\11---|
   
E|-------------------------|
B|-------------------------|
G|-------------------------|
D|-6--4--------------------|
A|-6--4--------------------|
E|-4--2-/14-14-14-14-16\11-|
__________________________________________________________________________________________________
BREAK

E|-------------------------------------------------------|
B|-------------------------------------------------------|
G|-------------------------------------------------------|
D|6--6--6--6--9-9-9-9-11-11-11-11-12-12-12-12-12-12-12-12| x2
A|6--6--6--6--9-9-9-9-11-11-11-11-12-12-12-12-12-12-12-12|
E|4--4--4--4--7-7-7-7-9--9--9--9--10-10-10-10-10-10-10-10|

E|--------------------------------------------|
B|--------------------------------------------|
G|--------------------------------------------|
D|--------------------------------------------|
A|---6---6---6---6----------------------------|
E|-4---4---4---4-----2---2/-14-14-14---14--14\|

E|------------------------------------------------|
B|------------------------------------------------|
G|------------------------------------------------|
D|------------------------------------------------|
A|----6---6-(6---8---9--10--12)-------------------|
E|-4---4-----4---6---7--9---10---10\--2-2-2---2--2|

E|---------------------------------------------|
B|---------------------------------------------|
G|---------------------------------------------|
D|---------------------------------------------|
A|---6---6---6---6-----------------------------|
E|-4---4---4---4-----2---2/--14-14-14----14--14|

 |Gtr.I
E|----------------------------------------------------|
B|----------------------------------------------------|
G|----------------------------------------------------|
D|----------------------------------------------------|
A|----6---6-(6---8---9--10--12)-----------------------|
E|-4---4-----4---6---7--9---10---10\----2-(let ring)--|
 |
 |Gtr.II
E|--------------------------------------------------------|
B|--------------------------------------------------------|
G|--------------------------------------------------------|
D|--6-----6----6--8--9--11--12----------16^---------------|
A|--------------------------------------------------------|
E|--------------------------------------14----------------|

__________________________________________________________________________________________________
VERSE

E|-------------------------|
B|-------------------------|
G|-------------------------|
D|-9--9--9--9\--6--6--6--6-|
A|-9--9--9--9\--6--6--6--6-|
E|-7--7--7--7\--4--4--4--4-|
Tap to rate this tab
# A B C D E F G H I J K L M N O P Q R S T U V W X Y Z