Song name
# A B C D E F G H I J K L M N O P Q R S T U V W X Y Z

Blood Red Shoes - Black Distractions tab

-------------------------------------------------------------------------------
                             Black Distractions - Blood Red Shoes
-------------------------------------------------------------------------------
Tabbed by: André Te.
E-mail: voo@online.de

Tuning: EAD (Standard)

intro:
e|------|
B|------|
G|------|
D|-2-2--|
A|-2-2--|
E|-0-0--|

e|--------------------|---------------------|
B|--------------------|---------------------|
G|--------------------|---------------------|
D|---------------8-8--|----------------2-2--|4x
A|---------------8-8--|----------------2-2--|
E|-0-3-5--0-3-5--6-8--|--6p5-3--5p3-0--0-0--|


chorus: part1 - play each tab about 16 times!
e|--------------------------|
B|--------------------------|
G|--------------------------|
D|-5--7--13--12-------------|
A|-5--7--13--12-------------|
E|-3--5--11--10-------------|


chorus: part2 - play the last two tabs twice!
e|-------||-----------------|
B|-------||-----------------|
G|-------||-----------------|
D|-5--7--||-13-13----12-12--|
A|-5--7--||-13-13----12-12--|
E|-3--5--||-11-11----10-12--|


bridge to verse:
e|--------------------------|
B|--------------------------|
G|--------------------------|
D|---------------2-2--------|
A|---------------2-2--------|
E|-6p5-3--5p3-0--0-0--------|


verse:
e|--------------------|---------------------|
B|--------------------|---------------------|
G|--------------------|---------------------|
D|---------------8-8--|----------------2-2--|4x
A|---------------8-8--|----------------2-2--|
E|-0-3-5--0-3-5--6-8--|--6p5-3--5p3-0--0-0--|


bridge to chorus:
e|--------------------------|
B|--------------------------|
G|--------------------------|
D|--------------------------|
A|-------7------------------|
E|-6p5-3--------------------|


chorus: part1 - play each tab about 16 times!
e|--------------------------|
B|--------------------------|
G|--------------------------|
D|-5--7--13--12-------------|
A|-5--7--13--12-------------|
E|-3--5--11--10-------------|


chorus: part2 - play the last two tabs twice!
e|-------||-----------------|
B|-------||-----------------|
G|-------||-----------------|
D|-5--7--||-13-13----12-12--|
A|-5--7--||-13-13----12-12--|
E|-3--5--||-11-11----10-12--|


bridge to solo:
e|--------------------------|
B|--------------------------|
G|--------------------------|
D|---------------2-2--------|
A|---------------2-2--------|
E|-6p5-3--5p3-0--0-0--------|


solo:
e|---------------------------------------------------------------------------|
B|-----------------------20--------------------------------------------------|
G|--------------------------18-19-15~----------------------------------------|
D|------------------------------------15-17_--17-14-17--14--12---------------|
A|--7b---3b---12b--7b5-----------------------------------------13_-----------|
E|---------------------------------------------------------------------------|


chorus: part 1 - play first two tabs only ONCE! the rest 16 times!
e|--------------------------|
B|--------------------------|
G|--------------------------|
D|-5_--7_--|-13--12---------|1x
A|-5_--7_--|-13--12---------|
E|-3_--5_--|-11--10---------|


chorus: part 2 - all tabs 16 times!
e|--------------------------|
B|--------------------------|
G|--------------------------|
D|-5--7--13--12-------------|2x
A|-5--7--13--12-------------|
E|-3--5--11--10-------------|


chorus: part 3 - play the last two tabs only TWICE!
e|-------||-----------------|
B|-------||-----------------|
G|-------||-----------------|
D|-5--7--||-13-13----12-12--|
A|-5--7--||-13-13----12-12--|
E|-3--5--||-11-11----10-12--|


end:
e|--------------------------|
B|--------------------------|
G|--------------------------|
D|---------------2-2--------|
A|---------------2-2--------|
E|-6p5-3--5p3-0--0-0--------|


************************************

| /   slide up
| \   slide down
| h   hammer-on
| p   pull-off
| ~   vibrato
| +   harmonic
| x   Mute note
| b   Bend
| pb  Pre-bend
| br  Bend release
| pbr Pre-bend release
| brb Bend release bend

************************************
Tap to rate this tab
 
# A B C D E F G H I J K L M N O P Q R S T U V W X Y Z